Song name
# A B C D E F G H I J K L M N O P Q R S T U V W X Y Z

Deep Purple - Haunted tab

Band: Deep Purple
Song: Haunted
Album: Bananas





Steve Morse (acoustic guitar 1)



     E  E  E  E  E  E  E  E     E  E  E  E  E  E  E  E   
E||--------------------------|-----------1-----------0--|
B||-----------1-----------3--|--------1-----------1-----|
G||--------2-----------0-----|-----2-----------0--------|
D||-----2-----------0--------|--------------------------|
A||--0-----------2-----------|--------------3-----------|
E||--------------------------|--1-----------------------|


  E  E  E  E  E  E  E  E     H.           Q       W                 
--------------------------|--------------------|-------------------|
--0-----------------------|--------------------|-------------------|
-----0-----0--------------|--0-----------------|-------------------|
--------0--------------0--|--------------------|-------------------|
-----------------0--------|--------------------|-------------------|
--3-----------------------|--------------------|-------------------|


  W                   W                   W                   W                 
-------------------|-------------------|-------------------|-------------------|
-------------------|-------------------|-------------------|-------------------|
-------------------|-------------------|-------------------|-------------------|
-------------------|-------------------|-------------------|-------------------|
-------------------|-------------------|-------------------|-------------------|
-------------------|-------------------|-------------------|-------------------|


  W                   W                   W                   W                 
-------------------|-------------------|-------------------|-------------------|
-------------------|-------------------|-------------------|-------------------|
-------------------|-------------------|-------------------|-------------------|
-------------------|-------------------|-------------------|-------------------|
-------------------|-------------------|-------------------|-------------------|
-------------------|-------------------|-------------------|-------------------|


  W                   W                   W                   W                 
-------------------|-------------------|-------------------|-------------------|
-------------------|-------------------|-------------------|-------------------|
-------------------|-------------------|-------------------|-------------------|
-------------------|-------------------|-------------------|-------------------|
-------------------|-------------------|-------------------|-------------------|
-------------------|-------------------|-------------------|-------------------|


  W                   W                   W                   W                 
-------------------|-------------------|-------------------|-------------------|
-------------------|-------------------|-------------------|-------------------|
-------------------|-------------------|-------------------|-------------------|
-------------------|-------------------|-------------------|-------------------|
-------------------|-------------------|-------------------|-------------------|
-------------------|-------------------|-------------------|-------------------|


  W                   W                   W                   W                 
-------------------|-------------------|-------------------|-------------------|
-------------------|-------------------|-------------------|-------------------|
-------------------|-------------------|-------------------|-------------------|
-------------------|-------------------|-------------------|-------------------|
-------------------|-------------------|-------------------|-------------------|
-------------------|-------------------|-------------------|-------------------|


  W                   W                   W                   W                 
-------------------|-------------------|-------------------|-------------------|
-------------------|-------------------|-------------------|-------------------|
-------------------|-------------------|-------------------|-------------------|
-------------------|-------------------|-------------------|-------------------|
-------------------|-------------------|-------------------|-------------------|
-------------------|-------------------|-------------------|-------------------|


  W                   W                   W                   W                 
-------------------|-------------------|-------------------|-------------------|
-------------------|-------------------|-------------------|-------------------|
-------------------|-------------------|-------------------|-------------------|
-------------------|-------------------|-------------------|-------------------|
-------------------|-------------------|-------------------|-------------------|
-------------------|-------------------|-------------------|-------------------|


  W                   W                   W                   W                 
-------------------|-------------------|-------------------|-------------------|
-------------------|-------------------|-------------------|-------------------|
-------------------|-------------------|-------------------|-------------------|
-------------------|-------------------|-------------------|-------------------|
-------------------|-------------------|-------------------|-------------------|
-------------------|-------------------|-------------------|-------------------|


  W                   W                   W                   W                 
-------------------|-------------------|-------------------|-------------------|
-------------------|-------------------|-------------------|-------------------|
-------------------|-------------------|-------------------|-------------------|
-------------------|-------------------|-------------------|-------------------|
-------------------|-------------------|-------------------|-------------------|
-------------------|-------------------|-------------------|-------------------|


  W                   W                   W                 
-------------------|-------------------|-------------------|
-------------------|-------------------|-------------------|
-------------------|-------------------|-------------------|
-------------------|-------------------|-------------------|
-------------------|-------------------|-------------------|
-------------------|-------------------|-------------------|


  strum                                                                     
  Q     Q    E  E  E  E     Q    Q    E  E  E  E     Q    Q    E  E  E  E   
--2-----2-------2-----2--|--2----2-------2-----2--|--2----2-------2-----2--|
--3-----3-------3-----3--|--2----2-------2-----2--|--3----3-------3-----3--|
--2-----2-------2-----2--|--2----2-------2-----2--|--4----4-------4-----4--|
--0-----0-------0-----0--|--4----4-------4-----4--|--4----4-------4-----4--|
-------------------------|--4----4-------4-----4--|--2----2-------2-----2--|
-------------------------|--2----2-------2-----2--|------------------------|


  Q    Q    E  E  E  E     Q    Q    E  E  E  E     Q    Q    E  E  E  E   
--3----3-------3-----3--|--2----2-------2-----2--|--2----2-------2-----2--|
--3----3-------3-----3--|--3----3-------3-----3--|--2----2-------2-----2--|
--3----3-------3-----3--|--2----2-------2-----2--|--2----2-------2-----2--|
--5----5-------5-----5--|--0----0-------0-----0--|--4----4-------4-----4--|
--5----5-------5-----5--|------------------------|--4----4-------4-----4--|
--3----3-------3-----3--|------------------------|--2----2-------2-----2--|


  Q    Q    E  E  E  E     Q    Q    E  E  E  E     Q    Q    E  E  E  E   
--2----2-------2-----2--|--3----3-------3-----3--|--1----1-------1-----1--|
--3----3-------3-----3--|--3----3-------3-----3--|--3----3-------3-----3--|
--4----4-------4-----4--|--3----3-------3-----3--|--3----3-------3-----3--|
--4----4-------4-----4--|--5----5-------5-----5--|--3----3-------3-----3--|
--2----2-------2-----2--|--5----5-------5-----5--|--1----1-------1-----1--|
------------------------|--3----3-------3-----3--|------------------------|


  Q    Q    E  E  E  E     Q    Q    E  E  E  E     Q    Q    E  E  E  E   
--3----3-------3-----3--|--1----1-------1-----1--|--1----1-------1-----1--|
--3----3-------3-----3--|--3----3-------3-----3--|--1----1-------1-----1--|
--3----3-------3-----3--|--2----2-------2-----2--|--2----2-------2-----2--|
--5----5-------5-----5--|--0----0-------0-----0--|--3----3-------3-----3--|
--5----5-------5-----5--|------------------------|--3----3-------3-----3--|
--3----3-------3-----3--|------------------------|--1----1-------1-----1--|


  Q    Q    E  E  E  E     Q    Q    E  E  E  E     W                 
--0----0-------0-----0--|--0----0-------0-----0--|-------------------|
--1----1-------1-----1--|--1----1-------1-----1--|-------------------|
--0----0-------0-----0--|--2----2-------2-----2--|-------------------|
--2----2-------2-----2--|--2----2-------2-----2--|-------------------|
--3----3-------3-----3--|--0----0-------0-----0--|-------------------|
------------------------|------------------------|-------------------|


  W                   W                   W                   W                 
-------------------|-------------------|-------------------|-------------------|
-------------------|-------------------|-------------------|-------------------|
-------------------|-------------------|-------------------|-------------------|
-------------------|-------------------|-------------------|-------------------|
-------------------|-------------------|-------------------|-------------------|
-------------------|-------------------|-------------------|-------------------|


  W                   W                   W                   W                 
-------------------|-------------------|-------------------|-------------------|
-------------------|-------------------|-------------------|-------------------|
-------------------|-------------------|-------------------|-------------------|
-------------------|-------------------|-------------------|-------------------|
-------------------|-------------------|-------------------|-------------------|
-------------------|-------------------|-------------------|-------------------|


  W                   W                   W                   W                 
-------------------|-------------------|-------------------|-------------------|
-------------------|-------------------|-------------------|-------------------|
-------------------|-------------------|-------------------|-------------------|
-------------------|-------------------|-------------------|-------------------|
-------------------|-------------------|-------------------|-------------------|
-------------------|-------------------|-------------------|-------------------|


  W                   W                   W                   W                 
-------------------|-------------------|-------------------|-------------------|
-------------------|-------------------|-------------------|-------------------|
-------------------|-------------------|-------------------|-------------------|
-------------------|-------------------|-------------------|-------------------|
-------------------|-------------------|-------------------|-------------------|
-------------------|-------------------|-------------------|-------------------|


  W                   W                   W                   W                 
-------------------|-------------------|-------------------|-------------------|
-------------------|-------------------|-------------------|-------------------|
-------------------|-------------------|-------------------|-------------------|
-------------------|-------------------|-------------------|-------------------|
-------------------|-------------------|-------------------|-------------------|
-------------------|-------------------|-------------------|-------------------|


  W                   W                   W                   W                 
-------------------|-------------------|-------------------|-------------------|
-------------------|-------------------|-------------------|-------------------|
-------------------|-------------------|-------------------|-------------------|
-------------------|-------------------|-------------------|-------------------|
-------------------|-------------------|-------------------|-------------------|
-------------------|-------------------|-------------------|-------------------|


  W                   W                   W                   W                 
-------------------|-------------------|-------------------|-------------------|
-------------------|-------------------|-------------------|-------------------|
-------------------|-------------------|-------------------|-------------------|
-------------------|-------------------|-------------------|-------------------|
-------------------|-------------------|-------------------|-------------------|
-------------------|-------------------|-------------------|-------------------|


  W                   W                   W                   W                 
-------------------|-------------------|-------------------|-------------------|
-------------------|-------------------|-------------------|-------------------|
-------------------|-------------------|-------------------|-------------------|
-------------------|-------------------|-------------------|-------------------|
-------------------|-------------------|-------------------|-------------------|
-------------------|-------------------|-------------------|-------------------|


  W                   W                   W                   W                 
-------------------|-------------------|-------------------|-------------------|
-------------------|-------------------|-------------------|-------------------|
-------------------|-------------------|-------------------|-------------------|
-------------------|-------------------|-------------------|-------------------|
-------------------|-------------------|-------------------|-------------------|
-------------------|-------------------|-------------------|-------------------|


  W                   W                  
-------------------|-------------------||
-------------------|-------------------||
-------------------|-------------------||
-------------------|-------------------||
-------------------|-------------------||
-------------------|-------------------||










Steve Morse (acoustic guitar 2)



     Q    E  E  Q    E  E     Q    E  E  Q    E  E     Q    E  E  E  E  Q     
E||-------0----------3-----|-------5----------------|-------3--x--1--x-------|
B||------------------------|------------------5-----|-------3--x--1--x-------|
G||--2---------------------|------------------------|------------------------|
D||------------------------|------------------------|------------------------|
A||------------------------|------------------------|------------------------|
E||------------------------|------------------------|------------------------|


  W                   W                   W                   W                 
-------------------|-------------------|-------------------|-------------------|
-------------------|-------------------|-------------------|-------------------|
-------------------|-------------------|-------------------|-------------------|
-------------------|-------------------|-------------------|-------------------|
-------------------|-------------------|-------------------|-------------------|
-------------------|-------------------|-------------------|-------------------|


  W                   W                   W                   W                 
-------------------|-------------------|-------------------|-------------------|
-------------------|-------------------|-------------------|-------------------|
-------------------|-------------------|-------------------|-------------------|
-------------------|-------------------|-------------------|-------------------|
-------------------|-------------------|-------------------|-------------------|
-------------------|-------------------|-------------------|-------------------|


  W                   W                   W                   W                 
-------------------|-------------------|-------------------|-------------------|
-------------------|-------------------|-------------------|-------------------|
-------------------|-------------------|-------------------|-------------------|
-------------------|-------------------|-------------------|-------------------|
-------------------|-------------------|-------------------|-------------------|
-------------------|-------------------|-------------------|-------------------|


  W                   W                   W                   W                 
-------------------|-------------------|-------------------|-------------------|
-------------------|-------------------|-------------------|-------------------|
-------------------|-------------------|-------------------|-------------------|
-------------------|-------------------|-------------------|-------------------|
-------------------|-------------------|-------------------|-------------------|
-------------------|-------------------|-------------------|-------------------|


  W                   W                   W                   W                 
-------------------|-------------------|-------------------|-------------------|
-------------------|-------------------|-------------------|-------------------|
-------------------|-------------------|-------------------|-------------------|
-------------------|-------------------|-------------------|-------------------|
-------------------|-------------------|-------------------|-------------------|
-------------------|-------------------|-------------------|-------------------|


  W                   W                   W                   W                 
-------------------|-------------------|-------------------|-------------------|
-------------------|-------------------|-------------------|-------------------|
-------------------|-------------------|-------------------|-------------------|
-------------------|-------------------|-------------------|-------------------|
-------------------|-------------------|-------------------|-------------------|
-------------------|-------------------|-------------------|-------------------|


  W                   W                   W                   W                 
-------------------|-------------------|-------------------|-------------------|
-------------------|-------------------|-------------------|-------------------|
-------------------|-------------------|-------------------|-------------------|
-------------------|-------------------|-------------------|-------------------|
-------------------|-------------------|-------------------|-------------------|
-------------------|-------------------|-------------------|-------------------|


  W                   W                   W                   W                 
-------------------|-------------------|-------------------|-------------------|
-------------------|-------------------|-------------------|-------------------|
-------------------|-------------------|-------------------|-------------------|
-------------------|-------------------|-------------------|-------------------|
-------------------|-------------------|-------------------|-------------------|
-------------------|-------------------|-------------------|-------------------|


  W                   W                   W                   W                 
-------------------|-------------------|-------------------|-------------------|
-------------------|-------------------|-------------------|-------------------|
-------------------|-------------------|-------------------|-------------------|
-------------------|-------------------|-------------------|-------------------|
-------------------|-------------------|-------------------|-------------------|
-------------------|-------------------|-------------------|-------------------|


  W                   W                   W                   W                 
-------------------|-------------------|-------------------|-------------------|
-------------------|-------------------|-------------------|-------------------|
-------------------|-------------------|-------------------|-------------------|
-------------------|-------------------|-------------------|-------------------|
-------------------|-------------------|-------------------|-------------------|
-------------------|-------------------|-------------------|-------------------|


  W                   W                   W                   W                 
-------------------|-------------------|-------------------|-------------------|
-------------------|-------------------|-------------------|-------------------|
-------------------|-------------------|-------------------|-------------------|
-------------------|-------------------|-------------------|-------------------|
-------------------|-------------------|-------------------|-------------------|
-------------------|-------------------|-------------------|-------------------|


  W                   W                   W                   W                 
-------------------|-------------------|-------------------|-------------------|
-------------------|-------------------|-------------------|-------------------|
-------------------|-------------------|-------------------|-------------------|
-------------------|-------------------|-------------------|-------------------|
-------------------|-------------------|-------------------|-------------------|
-------------------|-------------------|-------------------|-------------------|


  W                   W                   W                   W                 
-------------------|-------------------|-------------------|-------------------|
-------------------|-------------------|-------------------|-------------------|
-------------------|-------------------|-------------------|-------------------|
-------------------|-------------------|-------------------|-------------------|
-------------------|-------------------|-------------------|-------------------|
-------------------|-------------------|-------------------|-------------------|


  W                   W                   W                   W                 
-------------------|-------------------|-------------------|-------------------|
-------------------|-------------------|-------------------|-------------------|
-------------------|-------------------|-------------------|-------------------|
-------------------|-------------------|-------------------|-------------------|
-------------------|-------------------|-------------------|-------------------|
-------------------|-------------------|-------------------|-------------------|


  W                   W                   W                   W                 
-------------------|-------------------|-------------------|-------------------|
-------------------|-------------------|-------------------|-------------------|
-------------------|-------------------|-------------------|-------------------|
-------------------|-------------------|-------------------|-------------------|
-------------------|-------------------|-------------------|-------------------|
-------------------|-------------------|-------------------|-------------------|


  W                   W                   W                   W                 
-------------------|-------------------|-------------------|-------------------|
-------------------|-------------------|-------------------|-------------------|
-------------------|-------------------|-------------------|-------------------|
-------------------|-------------------|-------------------|-------------------|
-------------------|-------------------|-------------------|-------------------|
-------------------|-------------------|-------------------|-------------------|


  W                   W                   W                   W                 
-------------------|-------------------|-------------------|-------------------|
-------------------|-------------------|-------------------|-------------------|
-------------------|-------------------|-------------------|-------------------|
-------------------|-------------------|-------------------|-------------------|
-------------------|-------------------|-------------------|-------------------|
-------------------|-------------------|-------------------|-------------------|


  W                   W                   W                   W                 
-------------------|-------------------|-------------------|-------------------|
-------------------|-------------------|-------------------|-------------------|
-------------------|-------------------|-------------------|-------------------|
-------------------|-------------------|-------------------|-------------------|
-------------------|-------------------|-------------------|-------------------|
-------------------|-------------------|-------------------|-------------------|


  W                   W                   W                   W                 
-------------------|-------------------|-------------------|-------------------|
-------------------|-------------------|-------------------|-------------------|
-------------------|-------------------|-------------------|-------------------|
-------------------|-------------------|-------------------|-------------------|
-------------------|-------------------|-------------------|-------------------|
-------------------|-------------------|-------------------|-------------------|


  W                   W                   W                   W                 
-------------------|-------------------|-------------------|-------------------|
-------------------|-------------------|-------------------|-------------------|
-------------------|-------------------|-------------------|-------------------|
-------------------|-------------------|-------------------|-------------------|
-------------------|-------------------|-------------------|-------------------|
-------------------|-------------------|-------------------|-------------------|


  W                   W                   W                   W                 
-------------------|-------------------|-------------------|-------------------|
-------------------|-------------------|-------------------|-------------------|
-------------------|-------------------|-------------------|-------------------|
-------------------|-------------------|-------------------|-------------------|
-------------------|-------------------|-------------------|-------------------|
-------------------|-------------------|-------------------|-------------------|


  W                   W                   W                   W                 
-------------------|-------------------|-------------------|-------------------|
-------------------|-------------------|-------------------|-------------------|
-------------------|-------------------|-------------------|-------------------|
-------------------|-------------------|-------------------|-------------------|
-------------------|-------------------|-------------------|-------------------|
-------------------|-------------------|-------------------|-------------------|


  W                   W                   W                   W                 
-------------------|-------------------|-------------------|-------------------|
-------------------|-------------------|-------------------|-------------------|
-------------------|-------------------|-------------------|-------------------|
-------------------|-------------------|-------------------|-------------------|
-------------------|-------------------|-------------------|-------------------|
-------------------|-------------------|-------------------|-------------------|


  W                   W                  
-------------------|-------------------||
-------------------|-------------------||
-------------------|-------------------||
-------------------|-------------------||
-------------------|-------------------||
-------------------|-------------------||










Steve Morse (electric guitar 1 - lead)



     Q    E  E  Q    E  E     Q.     E  S   E.    S E.   
E||-------5--7--L----7--8--|--L-------------------------|
B||---------------------5--|--L---------8h-10-----------|
G||------------------------|---------7--7-------5g7-----|
D||------------------------|----------------------------|
A||------------------------|----------------------------|
E||------------------------|----------------------------|


  Q    S  S  E  E  E  E  E     H.           E  E     W                 
----------------------------|---------------------|-------------------|
-------8--------------------|---------------------|-------------------|
--7----7h-9p-7-----------7--|--L------------------|-------------------|
--5-------------7--5--7-----|---------------------|-------------------|
----------------------------|---------------2--3--|--5----------------|
----------------------------|---------------------|-------------------|


  slight distortion                                           
  Q                 Q    S  S E  S S E      W                 
-----------------------------------------|-------------------|
-----------------------------------------|-------------------|
------------------------------2----------|-------------------|
-------------------------2h-4-L--4-2-----|-------------------|
-------------------------------------5b--|--2----------------|
-----------------------------------------|-------------------|


  Q    Q    S  S E  Q       W                   H        S  S E  S  S E   
-------------------------|-------------------|----------------5----------|
-------------------------|-------------------|---------------------------|
------------7h-9-7-------|-------------------|-----------5s-6----6s-4----|
------------5------------|-------------------|------------------------7--|
-------------------------|-------------------|---------------------------|
-------------------------|-------------------|---------------------------|


  W                   W                   W                   W                 
-------------------|-------------------|-------------------|-------------------|
-------------------|-------------------|-------------------|-------------------|
-------------------|-------------------|-------------------|-------------------|
-------------------|-------------------|-------------------|-------------------|
-------------------|-------------------|-------------------|-------------------|
-------------------|-------------------|-------------------|-------------------|


  W                   W                   W                   W                 
-------------------|-------------------|-------------------|-------------------|
-------------------|-------------------|-------------------|-------------------|
-------------------|-------------------|-------------------|-------------------|
-------------------|-------------------|-------------------|-------------------|
-------------------|-------------------|-------------------|-------------------|
-------------------|-------------------|-------------------|-------------------|


  W                   W                   W                   W                 
-------------------|-------------------|-------------------|-------------------|
-------------------|-------------------|-------------------|-------------------|
-------------------|-------------------|-------------------|-------------------|
-------------------|-------------------|-------------------|-------------------|
-------------------|-------------------|-------------------|-------------------|
-------------------|-------------------|-------------------|-------------------|


  H        S  S E  S  S E     W                   W                 
----------------3----------|-------------------|-------------------|
---------------------------|-------------------|-------------------|
-----------3s-4----4s-2-0--|-------------------|-------------------|
---------------------------|-------------------|-------------------|
---------------------------|-------------------|-------------------|
---------------------------|-------------------|-------------------|


  Q    Q    S  S E  S S E      W                   Q    Q    S  S E  S  S  E   
----------------------------|-------------------|--------------------3h-5p-3--|
----------------------------|-------------------|-----------------3--3--L--L--|
-----------------2----------|-------------------|------------3s-4-4-----------|
------------2h-4-L--4-2-----|-------------------|-----------------------------|
------------------------5b--|--2----------------|-----------------------------|
----------------------------|-------------------|-----------------------------|


  S  S   S    S  Q    Q    Q       H        S  S E  E    E   
------------(10)----------------|---------------------------|
--6s-7-(10)---------------------|---------------------------|
--------------------------------|----------------2--4br--2--|
--------------------------------|-----------2h-4-L----------|
--------------------------------|---------------------------|
--------------------------------|---------------------------|


  W                   W                   W                   W                 
-------------------|-------------------|-------------------|-------------------|
-------------------|-------------------|-------------------|-------------------|
--4----------------|-------------------|-------------------|-------------------|
-------------------|-------------------|-------------------|-------------------|
-------------------|-------------------|-------------------|-------------------|
-------------------|-------------------|-------------------|-------------------|


  W                   W                   W                   W                 
-------------------|-------------------|-------------------|-------------------|
-------------------|-------------------|-------------------|-------------------|
-------------------|-------------------|-------------------|-------------------|
-------------------|-------------------|-------------------|-------------------|
-------------------|-------------------|-------------------|-------------------|
-------------------|-------------------|-------------------|-------------------|


  W                   W                   W                   W                 
-------------------|-------------------|-------------------|-------------------|
-------------------|-------------------|-------------------|-------------------|
-------------------|-------------------|-------------------|-------------------|
-------------------|-------------------|-------------------|-------------------|
-------------------|-------------------|-------------------|-------------------|
-------------------|-------------------|-------------------|-------------------|


  W                   W                   E.   S E    E  Q       E  E    
-------------------|-------------------|--------------------------------|
-------------------|-------------------|--------------------------------|
-------------------|-------------------|--9b-----9pb-----9pbr----7--9b--|
-------------------|-------------------|--------------------------------|
-------------------|-------------------|--------------------------------|
-------------------|-------------------|--------------------------------|


  S   S  H          Q    S S    S S S S  Q.        S  S E    E    
----(10)---------------------|-----------------------------------|
-----------------------------|----------10b~------10-------------|
--L------9b~--------L----9-7-|--9-7------------------11-9br--7~--|
-----------------------------|------9-7--------------------------|
-----------------------------|-----------------------------------|
-----------------------------|-----------------------------------|


                             \1                            
  Q.     Q     Q.            Q    T  T S Q      E   E  E   
----------------------|------------------------10--10--9--|
----------------------|--10g12----7-10-7------------------|
--L-------------------|------------------9b---------------|
---------9\----L------|-----------------------------------|
----------------------|-----------------------------------|
----------------------|-----------------------------------|


  Q.       S S  H             S E    S S S  S S S.  T  S.  T  E  E    
--9~-----------------------|-----------------------------------------|
----------10-7-10b~--------|--7------------10---8------7-------------|
---------------------------|----9br--7------------------------9--7~--|
---------------------------|-----------9-7----9----(9)----(9)--------|
---------------------------|-----------------------------------------|
---------------------------|-----------------------------------------|


  H        Q     T T T T E      H          S  E.     E     E    
-----------------------------|--8b~--------L-12br---10--8g10~--|
-------------------------6~--|---------------------------------|
--L--------7\----x-----7-----|---------------------------------|
-----------------x-5-8-------|---------------------------------|
-----------------------------|---------------------------------|
-----------------------------|---------------------------------|


  H         Q      S  S  S  S     H          S  S  S  S  S  S  S  S  
--L--------12b----12-10-------|-------------------------------------|
------------------------13-10-|--13b~--------L-15-13----------------|
------------------------------|----------------------14-13-12-------|
------------------------------|-------------------------------15-12-|
------------------------------|-------------------------------------|
------------------------------|-------------------------------------|


   H            S  T  T  T  T  T  T  T  T  T  T  T  T  T  T  
------------------------------------------------13-15-13----|
------------------------------------13-15-16-17----------17-|
--12brb~-------------------12-13-14-------------------------|
------------------12-14-15----------------------------------|
------------------------------------------------------------|
------------------------------------------------------------|


   H           S S  E     E   E        H         Q       S  S  S  S  
--------------15---15pbr--L--------|------------15br-----L-12----12-|
--15b~-----------------------15b~--|---L----------------------15----|
-----------------------------------|--------------------------------|
-----------------------------------|--------------------------------|
-----------------------------------|--------------------------------|
-----------------------------------|--------------------------------|


   H          S  S  S  S  S  S  S  S  
-------------------------------------|
--15b--------18-17-15-17-13-17-12-17-|
-------------------------------------|
-------------------------------------|
-------------------------------------|
-------------------------------------|


   Q     S  T  T  T  T  T  T  T  T  E.  T  T  T  T  T  T  T  T    
------------------------------------------------------------13b~-|
-----------------------------13-15~-L---L----------12-13-15------|
--14b----L-------------12-14--------------11-12-14---------------|
-----------12-14-15-16-------------------------------------------|
-----------------------------------------------------------------|
-----------------------------------------------------------------|


   H        E   S  S  S  S  S  S     H            E    E  E  E   
---L--------L--17-15-13-15----15-|--18b~--------(20)\-----------|
---------------------------17----|------------------------6--5--|
---------------------------------|---------------------5--------|
---------------------------------|------------------------------|
---------------------------------|------------------------------|
---------------------------------|------------------------------|


  H         E  E  E  E     H        E  E  E    E      H        E  E  E  E    
------------------------|--------------------------|------------------------|
--3~--------L--5--------|--------------------------|------------------------|
------------------4--5--|--L--------L--4-----------|------------------------|
------------------------|-----------------5--5g7~--|--L--------L--5--7------|
------------------------|--------------------------|--------------------7~--|
------------------------|--------------------------|------------------------|


  W                   W                   W                   W                 
-------------------|-------------------|-------------------|-------------------|
-------------------|-------------------|-------------------|-------------------|
-------------------|-------------------|-------------------|-------------------|
-------------------|-------------------|-------------------|-------------------|
--L----------------|-------------------|-------------------|-------------------|
-------------------|-------------------|-------------------|-------------------|


  H.            E    E      H.           E  E      Q.     Q    Q      E    
-------------------------|----------------------|-------------------------|
-------------------------|----------------------|--------------5----------|
--9~------------5--5g7~--|--L------------L--5~--|--L------7---------------|
-------------------------|----------------------|-------------------5g7~--|
-------------------------|----------------------|-------------------------|
-------------------------|----------------------|-------------------------|


  W                   W                   W                   W                 
-------------------|-------------------|-------------------|-------------------|
-------------------|-------------------|-------------------|-------------------|
-------------------|-------------------|-------------------|-------------------|
--L----------------|-------------------|-------------------|-------------------|
-------------------|-------------------|-------------------|-------------------|
-------------------|-------------------|-------------------|-------------------|


  W                   Q.      E  Q     E  E     H.           E   E   
-------------------|-------------------------|----------------------|
-------------------|-------------------------|----------------------|
-------------------|--9------10--9--------7--|--L------------L------|
-------------------|------------------10-----|------------------10--|
-------------------|-------------------------|----------------------|
-------------------|-------------------------|----------------------|


  Q.     Q    Q     E     Q     E   E   E   E   E   E     W                 
-----------------------|-------------------------------|-------------------|
-----------------------|-------------------------------|-------------------|
---------7----9--------|-------------------------------|-------------------|
--L--------------------|-------------------------------|-------------------|
-------------------12--|--L----12--10--10--------------|-------------------|
-----------------------|-------------------12--13--12--|-------------------|


  W                   W                   W                 
-------------------|-------------------|-------------------|
-------------------|-------------------|-------------------|
-------------------|-------------------|-------------------|
-------------------|-------------------|-------------------|
-------------------|-------------------|-------------------|
-------------------|-------------------|-------------------|


  H        E  E  E  E     H        E  E  E  E     Q.     E  E  E  E  E   
-----------------------|-----------------------|------------------------|
-----------------------|-----------------------|------------------------|
--5--------L--5--9--7--|--L--------L--9--7--5--|--L------7-----9--------|
-----------------------|-----------------------|---------------------7--|
-----------------------|-----------------------|------------------------|
-----------------------|-----------------------|------------------------|


  Q.     Q    Q    E     W                   W                 
----------------------|-------------------|-------------------|
----------------------|-------------------|-------------------|
--------------5----L--|-------------------|-------------------|
--L------9------------|-------------------|-------------------|
----------------------|-------------------|-------------------|
----------------------|-------------------|-------------------|


  W                   W                   H.           E  E   
-------------------|-------------------|---------------------|
-------------------|-------------------|---------------------|
-------------------|-------------------|--5------------L--7--|
-------------------|-------------------|---------------------|
-------------------|-------------------|---------------------|
-------------------|-------------------|---------------------|


  H.           E  E     H        E  E  E  E     W                  
---------------------|-----------------------|-------------------||
---------------------|-----------------------|-------------------||
--L------------L--5--|--L-----------5--4-----|-------------------||
---------------------|--------------------7--|--L----------------||
---------------------|-----------------------|-------------------||
---------------------|-----------------------|-------------------||










Steve Morse (electric guitar 2 - rhythm)



     Q    E  E  Q    Q       W                   Q    S  S  E   E  E   E    E   
E||-----------------------|-------------------|-------7h-8p-7------------------|
B||-----------------------|-------------------|----------------10--8--10s--12--|
G||-------5--7--L---------|-------------------|--------------------------------|
D||--7---------------5----|-------------------|--------------------------------|
A||-----------------------|-------------------|--------------------------------|
E||-----------------------|-------------------|--------------------------------|


                       sample rhythm (slight distortion)                   
  H.           Q       Q                                 E  Q    E  E  E   
--------------------|-----------------------------------------------------|
--L-----------------|-----------------------------------------------------|
--------------------|------------------------------------2-------2-----2--|
--------------------|------------------------------------4-------4-----4--|
--------------------|-----------------------------------------------------|
--------------------|-----------------------------------------------------|


  W                   Q    E  Q    E  E  E     W                 
-------------------|------------------------|-------------------|
-------------------|-------3-------3-----3--|-------------------|
-------------------|-------2-------2-----2--|-------------------|
-------------------|-------4-------4-----4--|-------------------|
-------------------|------------------------|-------------------|
-------------------|------------------------|-------------------|


  Q    E  Q    E  E  E     W                   Q    E  Q    E  E  E   
------------------------|-------------------|------------------------|
------------------------|-------------------|-------3-------3-----3--|
-------2-------2-----2--|-------------------|-------2-------2-----2--|
-------4-------4-----4--|-------------------|-------4-------4-----4--|
------------------------|-------------------|------------------------|
------------------------|-------------------|------------------------|


  W                   E  E  E  Q    E  E  E     E  E  E  Q    E  E  E   
-------------------|----------------3-----0--|----------------3-----0--|
-------------------|--------1----------3-----|-------------------3-----|
-------------------|-----0-----0-------------|--------2----------------|
-------------------|-------------------------|-----2-----2-------------|
-------------------|--3----------------------|--0----------------------|
-------------------|-------------------------|-------------------------|


  E  E  E  Q    E  S  S E     H        E  E  E  E     E  E  E  E  H         
----------------3----------|-----------3-----------|-----------0--L--------|
-------------------3s-5-3--|--L-----------3--------|-----------------------|
--------0------------------|-----------------0-----|--------5--------------|
-----2-----2---------------|--------------------0--|-----5-----------------|
---------------------------|-----------------------|--3--------------------|
--0------------------------|-----------------------|-----------------------|


  E  E  E    E  Q    E  E     E  E  E  E  H           E  E  E  E  Q    Q     
---------------------------|-----------0--L--------|------------------------|
-----------3g5--L----3-----|-----------0--L--------|-----------1------------|
--------5--4g5--L----4-----|--------2--------------|--------2-----2---------|
-----5---------------------|-----2-----------------|-------------------3----|
---------------------------|--0--------------------|-----3------------------|
--3------------------------|-----------------------|--1---------------------|


  bridge pick-up                                                 
  E              E  E  E  E  E  Q       E  E  E  E  E  E  E  E   
-------------------------------------|--------------------------|
-------------------------------------|--------------------------|
-----------------------0--------0----|-----------0-----------0--|
--------------------7--------5-------|--------7-----------5-----|
-----------------7-------------------|-----5-----------5--------|
--5-----------------------7----------|--5-----------8-----------|


  W                   W                 
-------------------|-------------------|
-------------------|-------------------|
--0----------------|--L----------------|
-------------------|-------------------|
-------------------|-------------------|
-------------------|-------------------|


  sample rhythm (slight distortion)                                       
  Q                                 E  Q    E  E  E     W                 
-----------------------------------------------------|-------------------|
-----------------------------------------------------|-------------------|
------------------------------------2-------2-----2--|-------------------|
------------------------------------4-------4-----4--|-------------------|
-----------------------------------------------------|-------------------|
-----------------------------------------------------|-------------------|


  Q    E  Q    E  E  E     W                   Q    E  Q    E  E  E   
------------------------|-------------------|------------------------|
-------3-------3-----3--|-------------------|------------------------|
-------2-------2-----2--|-------------------|-------2-------2-----2--|
-------4-------4-----4--|-------------------|-------4-------4-----4--|
------------------------|-------------------|------------------------|
------------------------|-------------------|------------------------|


  W                   Q    E  Q    E  E  E     W                 
-------------------|------------------------|-------------------|
-------------------|-------3-------3-----3--|-------------------|
-------------------|-------2-------2-----2--|-------------------|
-------------------|-------4-------4-----4--|-------------------|
-------------------|------------------------|-------------------|
-------------------|------------------------|-------------------|


  E  E  E  Q    E  E  E     E  E  E  Q    E  E  E     E  E  E  Q    E  S  S E   
----------------3-----0--|----------------3-----0--|----------------3----------|
--------1----------3-----|-------------------3-----|-------------------3s-5-3--|
-----0-----0-------------|--------2----------------|--------0------------------|
-------------------------|-----2-----2-------------|-----2-----2---------------|
--3----------------------|--0----------------------|---------------------------|
-------------------------|-------------------------|--0------------------------|


  H        E  E  E  E     E  E  E  E  H           E  E  E    E  Q    E  E   
-----------3-----------|-----------0--L--------|---------------------------|
--L-----------3--------|-----------------------|-----------3g5--L----3-----|
-----------------0-----|--------5--------------|--------5--4g5--L----4-----|
--------------------0--|-----5-----------------|-----5---------------------|
-----------------------|--3--------------------|---------------------------|
-----------------------|-----------------------|--3------------------------|


  E  E  E  E  H           E  E  E  E  Q    Q     
-----------0--L--------|------------------------|
-----------0--L--------|-----------1------------|
--------2--------------|--------2-----2---------|
-----2-----------------|-------------------3----|
--0--------------------|-----3------------------|
-----------------------|--1---------------------|


  bridge pick-up                                                 
  E              E  E  E  E  E  Q       E  E  E  E  E  E  E  E   
-------------------------------------|--------------------------|
-------------------------------------|--------------------------|
-----------------------0--------0----|-----------0-----------0--|
--------------------7--------5-------|--------7-----------5-----|
-----------------7-------------------|-----5-----------5--------|
--5-----------------------7----------|--5-----------8-----------|


  W                   W                   W                   W                 
-------------------|-------------------|-------------------|-------------------|
-------------------|-------------------|-------------------|-------------------|
--0----------------|--L----------------|-------------------|-------------------|
-------------------|-------------------|-------------------|-------------------|
-------------------|-------------------|-------------------|-------------------|
-------------------|-------------------|-------------------|-------------------|


  W                   W                   W                   W                 
-------------------|-------------------|-------------------|-------------------|
-------------------|-------------------|-------------------|-------------------|
-------------------|-------------------|-------------------|-------------------|
-------------------|-------------------|-------------------|-------------------|
-------------------|-------------------|-------------------|-------------------|
-------------------|-------------------|-------------------|-------------------|


  W                   W                   E  E  E  E  H         
-------------------|-------------------|-----------------------|
-------------------|-------------------|-----------3--L--------|
-------------------|-------------------|--------3--------------|
-------------------|-------------------|-----3-----------------|
-------------------|-------------------|--1--------------------|
-------------------|-------------------|-----------------------|


  E  E  E  E  H           E  E  E  E  H           E  E  E  E  H         
-----------------------|-----------------------|-----------------------|
-----------3--L--------|-----------6--L--------|-----------6--L--------|
--------3--------------|--------7--------------|--------5--------------|
-----0-----------------|-----7-----------------|-----7-----------------|
-----------------------|--5--------------------|--8--------------------|
--3--------------------|-----------------------|-----------------------|


  E  E  E  E  H           E  E  E  E  H           E  E  E  E  H         
-----------3--L--------|-----------5--L--------|-----------7--L--------|
-----------------------|--------5--------------|-----------------------|
--------5--------------|-----5-----------------|--------4--------------|
-----5-----------------|-----------------------|-----------------------|
--3--------------------|-----------------------|-----7-----------------|
-----------------------|--5--------------------|--0--------------------|


  E  E  E  E  H           E  E  E   E  E  E  Q       W                 
-----------7--L--------|--------7--10--7----------|-------------------|
-----------------------|------------------8--L----|-------------------|
--------4--------------|-----4--------------------|-------------------|
-----5-----------------|--5-----------------------|-------------------|
--5--------------------|--------------------------|-------------------|
-----------------------|--------------------------|-------------------|


  W                   W                   W                 
-------------------|-------------------|-------------------|
-------------------|-------------------|-------------------|
-------------------|-------------------|-------------------|
-------------------|-------------------|-------------------|
-------------------|-------------------|-------------------|
-------------------|-------------------|-------------------|


  E  E  E  E  E  E  E  E     E  E    E  E  E  E  Q       W                 
-----------------------0--|---------------------------|-------------------|
-----------0--------3-----|---------------------------|-------------------|
--------5--------0--------|--------0g2--0--------0----|-------------------|
-----2--------------------|-----2-------------0-------|-------------------|
--0-----------2-----------|--3-------------3----------|-------------------|
--------------------------|---------------------------|-------------------|


  Q    E  E  E  E  E  E     W                   W                 
----------3-----3-----3--|-------------------|-------------------|
-------1-----0-----1-----|-------------------|-------------------|
-------------------------|-------------------|-------------------|
-------------------------|-------------------|-------------------|
-------------------------|-------------------|-------------------|
-------------------------|-------------------|-------------------|


  W                   W                   E  E  E  E  E  E  E  E   
-------------------|-------------------|-----------------------0--|
-------------------|-------------------|-----------0--------3-----|
-------------------|-------------------|--------5--------0--------|
-------------------|-------------------|-----2--------------------|
-------------------|-------------------|--0-----------2-----------|
-------------------|-------------------|--------------------------|


  E  E    E  E  E  E  Q       W                   Q    E  E  E  E  E  E   
---------------------------|-------------------|----------3-----3-----3--|
---------------------------|-------------------|-------1-----0-----1-----|
--------0g2--0--------0----|-------------------|-------------------------|
-----2-------------0-------|-------------------|-------------------------|
--3-------------3----------|-------------------|-------------------------|
---------------------------|-------------------|-------------------------|


  W                   W                   W                   W                 
-------------------|-------------------|-------------------|-------------------|
-------------------|-------------------|-------------------|-------------------|
-------------------|-------------------|-------------------|-------------------|
-------------------|-------------------|-------------------|-------------------|
-------------------|-------------------|-------------------|-------------------|
-------------------|-------------------|-------------------|-------------------|


  E  E  E  E  E  E  E  E     E  E    E  E  E  E  Q       W                 
-----------------------0--|---------------------------|-------------------|
-----------0--------3-----|---------------------------|-------------------|
--------5--------0--------|--------0g2--0--------0----|-------------------|
-----2--------------------|-----2-------------0-------|-------------------|
--0-----------2-----------|--3-------------3----------|-------------------|
--------------------------|---------------------------|-------------------|


  Q    E  E  E  E  E  E     W                   W                 
----------3-----3-----3--|-------------------|-------------------|
-------1-----0-----1-----|-------------------|-------------------|
-------------------------|-------------------|-------------------|
-------------------------|-------------------|-------------------|
-------------------------|-------------------|-------------------|
-------------------------|-------------------|-------------------|


  W                   W                   E  E  E  E  E  E  E  E   
-------------------|-------------------|-----------------------0--|
-------------------|-------------------|-----------0--------3-----|
-------------------|-------------------|--------5--------0--------|
-------------------|-------------------|-----2--------------------|
-------------------|-------------------|--0-----------2-----------|
-------------------|-------------------|--------------------------|


  E  E    E  E  E  E  Q       W                   Q    E  E  E  E  E  E   
---------------------------|-------------------|----------3-----3-----3--|
---------------------------|-------------------|-------1-----0-----1-----|
--------0g2--0--------0----|-------------------|-------------------------|
-----2-------------0-------|-------------------|-------------------------|
--3-------------3----------|-------------------|-------------------------|
---------------------------|-------------------|-------------------------|


  W                   W                   W                 
-------------------|-------------------|-------------------|
-------------------|-------------------|-------------------|
-------------------|-------------------|-------------------|
-------------------|-------------------|-------------------|
-------------------|-------------------|-------------------|
-------------------|-------------------|-------------------|


  W                  
-------------------||
-------------------||
-------------------||
-------------------||
-------------------||
-------------------||










Steve Morse (delay effect)



     Q    Q    E  E  Q       E  E  E  E  E  S   S S S   S S  
E||------------5--7--L----|--7--8--L------------------------|
B||-----------------------|-----5--L--------8h-10-----------|
G||-----------------------|-----------------7---L-----5g7---|
D||-----------------------|---------------------------------|
A||-----------------------|---------------------------------|
E||-----------------------|---------------------------------|


  W                   E  E  E  E  E  E  Q       W                 
-------------------|-------------------------|-------------------|
-------------------|-------------------------|-------------------|
-------------------|-------------------------|-------------------|
-------------------|--7--9--7--9--7--9-------|-------------------|
-------------------|-------------------------|-------------------|
-------------------|-------------------------|-------------------|


  W                   W                   W                   W                 
-------------------|-------------------|-------------------|-------------------|
-------------------|-------------------|-------------------|-------------------|
-------------------|-------------------|-------------------|-------------------|
-------------------|-------------------|-------------------|-------------------|
-------------------|-------------------|-------------------|-------------------|
-------------------|-------------------|-------------------|-------------------|


  W                   W                   W                   W                 
-------------------|-------------------|-------------------|-------------------|
-------------------|-------------------|-------------------|-------------------|
-------------------|-------------------|-------------------|-------------------|
-------------------|-------------------|-------------------|-------------------|
-------------------|-------------------|-------------------|-------------------|
-------------------|-------------------|-------------------|-------------------|


  W                   W                   W                   W                 
-------------------|-------------------|-------------------|-------------------|
-------------------|-------------------|-------------------|-------------------|
-------------------|-------------------|-------------------|-------------------|
-------------------|-------------------|-------------------|-------------------|
-------------------|-------------------|-------------------|-------------------|
-------------------|-------------------|-------------------|-------------------|


  W                   W                   W                   W                 
-------------------|-------------------|-------------------|-------------------|
-------------------|-------------------|-------------------|-------------------|
-------------------|-------------------|-------------------|-------------------|
-------------------|-------------------|-------------------|-------------------|
-------------------|-------------------|-------------------|-------------------|
-------------------|-------------------|-------------------|-------------------|


  W                   W                   W                   W                 
-------------------|-------------------|-------------------|-------------------|
-------------------|-------------------|-------------------|-------------------|
-------------------|-------------------|-------------------|-------------------|
-------------------|-------------------|-------------------|-------------------|
-------------------|-------------------|-------------------|-------------------|
-------------------|-------------------|-------------------|-------------------|


  W                   W                   W                   W                 
-------------------|-------------------|-------------------|-------------------|
-------------------|-------------------|-------------------|-------------------|
-------------------|-------------------|-------------------|-------------------|
-------------------|-------------------|-------------------|-------------------|
-------------------|-------------------|-------------------|-------------------|
-------------------|-------------------|-------------------|-------------------|


  W                   W                   W                   W                 
-------------------|-------------------|-------------------|-------------------|
-------------------|-------------------|-------------------|-------------------|
-------------------|-------------------|-------------------|-------------------|
-------------------|-------------------|-------------------|-------------------|
-------------------|-------------------|-------------------|-------------------|
-------------------|-------------------|-------------------|-------------------|


  W                   W                   W                   W                 
-------------------|-------------------|-------------------|-------------------|
-------------------|-------------------|-------------------|-------------------|
-------------------|-------------------|-------------------|-------------------|
-------------------|-------------------|-------------------|-------------------|
-------------------|-------------------|-------------------|-------------------|
-------------------|-------------------|-------------------|-------------------|


  W                   W                   W                   W                 
-------------------|-------------------|-------------------|-------------------|
-------------------|-------------------|-------------------|-------------------|
-------------------|-------------------|-------------------|-------------------|
-------------------|-------------------|-------------------|-------------------|
-------------------|-------------------|-------------------|-------------------|
-------------------|-------------------|-------------------|-------------------|


  W                   W                   W                   W                 
-------------------|-------------------|-------------------|-------------------|
-------------------|-------------------|-------------------|-------------------|
-------------------|-------------------|-------------------|-------------------|
-------------------|-------------------|-------------------|-------------------|
-------------------|-------------------|-------------------|-------------------|
-------------------|-------------------|-------------------|-------------------|


  W                   W                   W                   W                 
-------------------|-------------------|-------------------|-------------------|
-------------------|-------------------|-------------------|-------------------|
-------------------|-------------------|-------------------|-------------------|
-------------------|-------------------|-------------------|-------------------|
-------------------|-------------------|-------------------|-------------------|
-------------------|-------------------|-------------------|-------------------|


  W                   W                   W                   W                 
-------------------|-------------------|-------------------|-------------------|
-------------------|-------------------|-------------------|-------------------|
-------------------|-------------------|-------------------|-------------------|
-------------------|-------------------|-------------------|-------------------|
-------------------|-------------------|-------------------|-------------------|
-------------------|-------------------|-------------------|-------------------|


  W                   W                   W                   W                 
-------------------|-------------------|-------------------|-------------------|
-------------------|-------------------|-------------------|-------------------|
-------------------|-------------------|-------------------|-------------------|
-------------------|-------------------|-------------------|-------------------|
-------------------|-------------------|-------------------|-------------------|
-------------------|-------------------|-------------------|-------------------|


  W                   W                   W                   W                 
-------------------|-------------------|-------------------|-------------------|
-------------------|-------------------|-------------------|-------------------|
-------------------|-------------------|-------------------|-------------------|
-------------------|-------------------|-------------------|-------------------|
-------------------|-------------------|-------------------|-------------------|
-------------------|-------------------|-------------------|-------------------|


  W                   W                   W                   W                 
-------------------|-------------------|-------------------|-------------------|
-------------------|-------------------|-------------------|-------------------|
-------------------|-------------------|-------------------|-------------------|
-------------------|-------------------|-------------------|-------------------|
-------------------|-------------------|-------------------|-------------------|
-------------------|-------------------|-------------------|-------------------|


  W                   W                   W                   W                 
-------------------|-------------------|-------------------|-------------------|
-------------------|-------------------|-------------------|-------------------|
-------------------|-------------------|-------------------|-------------------|
-------------------|-------------------|-------------------|-------------------|
-------------------|-------------------|-------------------|-------------------|
-------------------|-------------------|-------------------|-------------------|


  W                   W                   W                   W                 
-------------------|-------------------|-------------------|-------------------|
-------------------|-------------------|-------------------|-------------------|
-------------------|-------------------|-------------------|-------------------|
-------------------|-------------------|-------------------|-------------------|
-------------------|-------------------|-------------------|-------------------|
-------------------|-------------------|-------------------|-------------------|


  W                   W                   W                   W                 
-------------------|-------------------|-------------------|-------------------|
-------------------|-------------------|-------------------|-------------------|
-------------------|-------------------|-------------------|-------------------|
-------------------|-------------------|-------------------|-------------------|
-------------------|-------------------|-------------------|-------------------|
-------------------|-------------------|-------------------|-------------------|


  W                   W                   W                   W                 
-------------------|-------------------|-------------------|-------------------|
-------------------|-------------------|-------------------|-------------------|
-------------------|-------------------|-------------------|-------------------|
-------------------|-------------------|-------------------|-------------------|
-------------------|-------------------|-------------------|-------------------|
-------------------|-------------------|-------------------|-------------------|


  W                   W                   W                   W                 
-------------------|-------------------|-------------------|-------------------|
-------------------|-------------------|-------------------|-------------------|
-------------------|-------------------|-------------------|-------------------|
-------------------|-------------------|-------------------|-------------------|
-------------------|-------------------|-------------------|-------------------|
-------------------|-------------------|-------------------|-------------------|


  W                   W                   W                   W                 
-------------------|-------------------|-------------------|-------------------|
-------------------|-------------------|-------------------|-------------------|
-------------------|-------------------|-------------------|-------------------|
-------------------|-------------------|-------------------|-------------------|
-------------------|-------------------|-------------------|-------------------|
-------------------|-------------------|-------------------|-------------------|


  W                   W                   W                   W                 
-------------------|-------------------|-------------------|-------------------|
-------------------|-------------------|-------------------|-------------------|
-------------------|-------------------|-------------------|-------------------|
-------------------|-------------------|-------------------|-------------------|
-------------------|-------------------|-------------------|-------------------|
-------------------|-------------------|-------------------|-------------------|


  W                   W                   W                 
-------------------|-------------------|-------------------|
-------------------|-------------------|-------------------|
-------------------|-------------------|-------------------|
-------------------|-------------------|-------------------|
-------------------|-------------------|-------------------|
-------------------|-------------------|-------------------|


  W                  
-------------------||
-------------------||
-------------------||
-------------------||
-------------------||
-------------------||




Duration Legend
---------------
W - whole
H - half
Q - quarter
E - 8th
S - 16th
T - 32nd
X - 64th
. - note dotted
|-n-|  - n-tuplets


Tablature Legend
----------------
L - tied note
x - dead note
g - grace note
(n) - ghost note
> - accentuded note
NH - natural harmonic
AH - artificial harmonic
TH - tapped harmonic
SH - semi harmonic
PH - pitch harmonic
h - hammer on
p - pull off
b - bend
br - bendRelease
pb - preBend
pbr - preBendRelease
brb - bendReleaseBend
\n/ - tremolo bar dip
\n - tremolo bar dive
-/n - tremolo bar Release up
/n\ - tremolo bar inverted dip
/n - tremolo bar return
-\n - tremolo bar Release down
S - shift slide
s - legato slide
/ -  slide into from below or out of upwards
\ -  slide into from above or out of downwards
~ - vibrato
W - wide vibrato
tr - trill
TP - tremolo picking
T - tapping
S - slap
P - pop
< - fade in
^ - brush up
v - brush down
Tap to rate this tab
 
# A B C D E F G H I J K L M N O P Q R S T U V W X Y Z