Song name
# A B C D E F G H I J K L M N O P Q R S T U V W X Y Z

Deep Purple - Under The Gun tab

Deep Purple: Under The Gun (Perfect Strangers, 1984)

Guitar: Ritchie Blackmore
Vocals: Ian Gillan
Bass Guitar: Roger Glover
Keyboards: Jon Lord
Drums: Ian Paice


Intro (x1)
               x3
E|---------------|------------------|
B|---------------|------------------|
G|--9--9-10\-----|------------------|
D|--9--9-10\-----|--2--0--5---------|
A|--7--7--8\-----|--2--0--5---------|
E|---------------|--0--2--3---------|

Verse (x2)
E|---------------------------------------------------------------------|
B|---------------------------------------------------------------------|
G|--9--9-10\--------------------9--9-10\---------------9--9--10\-------|
D|--9--9-10\--------------------9--9-10\---------------9--7--10\-------|
A|--7--7--8\--------------------7--7--8\---------------7--7---8\-------|
E|---------------------------------------------------------------------|
              "Infidel can you..."      "Would be..."
              "When you..."             "Deeds I've..."

E|------------------------------------------|
B|------------------------------------------|
G|-------------------------------2---4--7---|
D|-------------------2--0--5-----2---4--7---|
A|-------------------2--0--5-----0---2--5---|
E|-------------------0--2--3----------------|
   "I need you to..."
   "Realise I've never..."

Chorus
E|-------------------------------------------------|
B|-------------------------------------------------|
G|---7-----7----7------7-------7-----7---7------7--|
D|---7--5--7-------------------7--5--7-------------|
A|---5--5--5------5--5---5--5--5--5--5-----5--5----|
E|------3-------------------------3----------------|
               "I've got..."           "There was..."

E|---------------------------------------------------------------------|
B|---------------------------------------------------------------------|
G|------7-----7--7------7-------7-----7----7--5--4---------------------|
D|------7--5--7-----------------7--5--7----7--5--4---------------------|
A|-5-5--5--5--5----5--5---5--5--5--5--5----5--3--2---------------------|
E|---------3-----------------------3-----------------------------------|
  a reason..."   "It's going..."    "Under The Gun"
Tap to rate this tab
# A B C D E F G H I J K L M N O P Q R S T U V W X Y Z