Song name
# A B C D E F G H I J K L M N O P Q R S T U V W X Y Z

Deep Purple - Freedom tab

Help us improve GuitareTab! Take a short survey!
-------------------------------------------------------------------------------
Deep Purple-Freedom
Album: Fireball 25th Anniversary Edition
-------------------------------------------------------------------------------

Main riff:
e|-----------------------------------------------------------|
B|-----------------------------------------------------------|
G|------------5-3-4------------------------5-3-4-------------| 2x
D|--------0-3-------5---5---3----------0-3-------5-----------|
A|------2-------------5---5---3------2-------------5-4-3-----|
E|--3-3--------------------------3-3-------------------------|


Verse:
G (2 bars)
F (2 bars)
C (2 bars)
G (2 bars)
e|------------------|
B|------------------|
G|------------------|
D|-3-2-0------------|
A|-------1-2--------|
E|------------------|


G (2 bars)
F (2 bars)
C (2 bars)
G (2 bars)

B C C#

Chorus:

D (6 bars)

C B

Main riff

2nd verse:

G (2 bars)
F (2 bars)
C (2 bars)
G (2 bars)
e|------------------|
B|------------------|
G|------------------|
D|-3-2-0------------|
A|-------1-2--------|
E|------------------|


G (2 bars)
F (2 bars)
C (2 bars)
G (2 bars)

B C C#

Chorus:

D (6 bars)

C B

Main riff

Piano solo

3rd verse

A (2 bars)
G (2 bars)
D (2 bars)
A (2 bars)
e|------------------|
B|------------------|
G|------------------|
D|-5-4-2------------|
A|-------3-4--------|
E|------------------|

A (2 bars)
G (2 bars)
D (2 bars)
A (2 bars)

C# D D#

Chorus:

E (6 bars)

D C

e|-------------------------------------------------------------|
B|-------------------------------------------------------------|
G|------------7-5-6------------------------7-5-6---------------| 2x
D|----------5-------7---7---5------------5-------7-------------|
A|------4-7-----------7---7---5------4-7------------7-6-5------|
E|--5-5--------------------------5-5---------------------------|
Related for Freedom tab