Song name
# A B C D E F G H I J K L M N O P Q R S T U V W X Y Z

Deep Purple - Into The Fire tab

Deep Purple - Into The Fire (from In Rock)


Intro and main riff:

E------------------------------------------------------------|
B------------------------------------------------------------|
G------------------------------------------------------------|
D------------------------------------------------------------|
A----------5-5--57-----------------------5-5-57--------------|
E--7-7--5-7-------0-1-2-3-4-5-6--7-7--5-7------0-1-2-3-4-5-6-|


E-------------------------------------------------------------|
B-------------------------------------------------------------|
G------------------------------------------------13---13---13-|
D------------------------------------------------14---14---14-|
A----------5-5--57-------------------------------14---14---14-|
E--7-7--5-7-------0-1-2-3-4-5-65-6-7-8-9-10-11-0-12-0-12-0-12-|
Tap to rate this tab
# A B C D E F G H I J K L M N O P Q R S T U V W X Y Z