Song name
# A B C D E F G H I J K L M N O P Q R S T U V W X Y Z

Deep Purple - Sometimes I Feel Like Screaming tab

Help us improve GuitareTab! Take a short survey!
Sometimes I Feel Like Screaming by Deep Purple


The Chords the Lyrics and the Melodies are Deep Purples Own Work.



     Dm          Bb             C              Am           Bb          C
e|-------------------------------------------------------------------------|
h|-----------5---6---------------------------------------------------------|
g|---7------------------0--H2---0------7--/9---5---------------------------|
d|-------7-----------------------------------------(10)\5---3---5--/7---5--|
a|---5---------------------------------------------------------------------|
E|-------------------------------------------------------------------------|


           G
|------------------3_----|
|----------------3_------|
|--------------4_--------|
|---3--P2-----5_---------|
|----------5_------------|
|------------------------|



     Dm           Bb        C             Am                 Bb
|--------------------------------------------------------------------|
|------------5---6_--------------------------------------------------|
|---7-----7------------------------7/9---5---------------------------|
|------7---------------7---5-----------------(10)\T[5-7-5]---3-------|
|---5--------------------------7---------------------------------5---|
|--------------------------------------------------------------------|

            C          G
|---------------------------|
|---------------------------|
|---------------5--/7--7----|
|---5--/7---5---------------|
|---------------------------|
|---------------------------|



Verse 1:

Dm                   Gm
While you were out
     Bb      Am 	
the message says
Dm                 Gm
You left a number 
           Bb   Am
and I tried to call
Dm                     Gm
But they wrote it down
      Bb           Am   Dm    Gm
in a perfect Spanish scrawl
      Bb       Am       Dm	
in a perfect Spanish scrawl


     (scrawl)
     Dm          Bb       C              Am                  Bb
|-------------------------------------------------------------------|
|-----------5---6_--------------------------------------------------|
|---7-----------------------------7/9---5---------------------------|
|-------7------------7---5------------------(10)\T[5-7-5]---3-------|
|---5------------------------7----------------------------------5---|
|-------------------------------------------------------------------|

            C           G
|-------------------------------3_----|
|-----------------------------3_------|
|---------------------------4_--------|
|---5--/7---5---3--P2-----5_----------|
|-----------------------5_------------|
|-------------------------------------|


Dm
Yet again
Gm   Bb      Am	
I'm missing you
Dm            Gm
King size bed
            Bb   Am
in a hotel someplace
Dm                Gm
I hear your name
Bb Am       Dm     Gm
I see your face
Bb Am       Dm	
I see your face


     (face)
     Dm             Bb        C              Am            Bb         C
e|-------------12---13----------------------------------------------------|
h|---------------------------------(13)/17---13---(13)\8---6---8-/10-\8---|
g|--------14-------------14---12------------------------------------------|
d|------------------------------------------------------------------------|
a|---12-------------------------------------------------------------------|
E|---10-------------------------------------------------------------------|

             G
|-----------------------8---10----|
|-------------------8-------------|
|---10--P9---7--------------------|
|---------------------------------|
|---------------------------------|
|---------------------------------|



   Dm             Bb        C              Am            Bb         C
e|--------12---13----------------------------------------------------------|
h|--------------------------------------(13)/17---13-----------------------|
g|---14------------------14---12----------------------------(14)\12---10---|
d|------------------15-------------14------------------14------------------|
a|-------------------------------------------------------------------------|
E|-------------------------------------------------------------------------|

         G
|--------------------------------|
|---------------------13---15----|
|--------12-B14-R12--------------|
|---12---------------------------|
|--------------------------------|



Chorus

F
Back street dolls
       Bb
and the side door johnnies
     F                    C
The wide-eyed boys with their bags full of money
Ab                Db
Back in the alley

going bang to the wall
Ab               Eb
Tied to the tail of a midnight crawl
F                     Bb
Heaven wouldn't be so high I know
        F             C	
if the time gone by hadn't been so low
Ab                   Db
The best-laid plans come apart at the seams
Ab                     Eb
and shattered all my dreams 


Verse 2:

                       Dm         Gm
Sometimes I feel like Screaming
Bb       Am	
close my eyes
Dm                    Gm
It's times like this
            Bb  Am
my head goes down
Dm                 Gm      Bb
and the only thing I know
        Am         Dm	    Gm
is the name of this town
     Bb  Am           Dm
The name of this town

(piano, starting on 'town')
Dm	Bb	C	Am	Bb	C	G	

Dm          Gm
Yet again
     Bb      Am	
I'm missing you
Dm             Gm
won't be long
     Bb     Am	
I'm coming home
Dm             Gm       Bb
Until that distant time
Am	Dm        Gm
I'll be moving on
Bb   Am         Dm
I'll be moving on

    (on)
     Dm        Bb        C     Am           Bb                  C
e|--------12---13----------------------------------------------------|
h|-----------------------------13------------------------------------|
g|---14-------------14---12---------14\12---10--------12---14---12---|
d|-----------------------------------------------12------------------|
a|-------------------------------------------------------------------|
E|-------------------------------------------------------------------|

             G
|----------------------------------------------------|
|----------------------13---(13)P12--------15---12---|
|-----------------12------------------12-------------|
|---15-P-14--12--------------------------------------|
|----------------------------------------------------|
|----------------------------------------------------|


     Dm             Bb             C                 Am
e|-------------12---13-----------------------------------------|
h|-------------------------------------------13-/17--13--------|
g|--------14------------------14--\12--------------------------|
d|---12------------------15-------------14----------------14---|
a|-------------------------------------------------------------|
E|-------------------------------------------------------------|

              Bb                C                 G
|------------------------------------------------------|
|-----------------------13-/15--13--------15/19---20---|
|---(14)\12---10---------------------12----------------|
|------------------12----------------------------------|
|------------------------------------------------------|
|------------------------------------------------------|


Chorus

(guitar solo)
Dm	Bb	C	Am	Bb	C	G	(4x)

(guitar riff)
Dm	Bb	C	Am	Bb	C	G	(2x)

Chorus (without lyrics)
Chorus
(guitar riff)
F#m	D	E	C#m	D	E	B	(2x)
Bm	G	A	F#m	G	A	E	(2x)
Em	C	D	Bm	C	D	A	(2x)
Am	F	G	Em	F	G	D	(2x)
Dm	Bb	C	Am	Bb	C	G	(2x)

Legend:

H= Hammeron
P= Pulloff
/ or \= Slide up or down
()= not sounding notes
_= Hold
T[]=Triller
B= Bend
B R= Band and Release without 2nd or 3rd picking


The Rythm you will get by hearing.

I'll do more later, but I think with this, you have enough work.
Sorry for my bad English, but it isn't my mothertongue.
Related for Sometimes I Feel Like Screaming tab