Guitaretab - guitar tabs
Song name
# A B C D E F G H I J K L M N O P Q R S T U V W X Y Z

Deep Purple - Drifter tab

                                     DRIFTER
                           As recorded by Deep Purple
                    (From the 1975 Album COME TASTE THE BAND)

Words and Music by Tommy Bolin/David Coverdale
Transcribed by larmo

Gtr I (E A D G B E) - 'Untitled'
Gtr II (E A D G B E) - 'Untitled'

 Intro
  Q=140
 4/4
  Gtr I
  E E E E q.  E   E E E Q  Q  E   E E E E q.   E   E H    +E  Q
|---------------|---------------|----------------|-----------------|
|---------------|---------------|----------------|-----------------|
|---------------|---------------|----------------|-----------------|
|-5-7-7-5-7---7-|-5-7-7-7-----7-|-5-7-7-5-7----5-|-7-5----(5)------|
|-5-7-7-5-7---7-|-5-7-7-7-----7-|-5-7-7-5-7----5-|-7-5----(5)------|
|-3-5-5-3-5---5-|-3-5-5-5-----5-|-3-5-5-3-5----3-|-5-3----(3)------|


    E E E E q.   E     E  E   E Q    Q      E
|------------------|--------------------------|
|------------------|--------------------------|
|------------------|--------------------------|
|---5-7-7-5-7----7-|---5--7---7-7-----------7-|
|---5-7-7-5-7----7-|---5--7---7-7-----------7-|
|---3-5-5-3-5----5-|---3--5---5-5-----------5-|
|
| Gtr II
|   W                 +Q.     Q    E     E  E
|-/17--------------|-(17)---/17---15----12----|
|------------------|-----------------------15-|
|------------------|--------------------------|
|------------------|--------------------------|
|------------------|--------------------------|
|------------------|--------------------------|


    E  E E E q.    E   E H   +E  Q
|--------------------|---------------|
|--------------------|---------------|
|--------------------|---------------|
|---5--7-7-5-7-----5-|-7-5---(5)-----|
|---5--7-7-5-7-----5-|-7-5---(5)-----|
|---3--5-5-3-5-----3-|-5-3---(3)-----|
|
|  +H           H          W
|--------------------|---------------|
|-(15)---------------|---------------|
|--------------------|---------------|
|--------------------|---------------|
|--------------------|---------------|
|--------------------|---------------|


   E E E E q.   E        E E E Q   Q  E
|------------------|--------------------|
|------------------|--------------------|
|------------------|--------------------|
|--5-7-7-5-7----7--|-----5-7-7-7------7-|
|--5-7-7-5-7----7--|-----5-7-7-7------7-|
|--3-5-5-3-5----5--|-----3-5-5-5------5-|
|
|  W                 +E  E E Q E Q
|------------------|--------------------|
|------------------|--------------------|
|------------------|---------5-9s5------|
|-/7---------------|-(7)-5-7------------|
|------------------|--------------------|
|------------------|--------------------|


  E E E E q.   E   E  H   +E     Q
|----------------|---------------------------|
|----------------|---------------------------|
|----------------|---------------------------|
|-5-7-7-5-7----5-|-7--5---(5)----------------|
|-5-7-7-5-7----5-|-7--5---(5)----------------|
|-3-5-5-3-5----3-|-5--3---(3)----------------|
|
| E E E E H          +H       E     E E E
|----------------|---------------------------|
|----------------|---------------------------|
|----------------|----------------------5----|
|-7-5---5-7------|---(7)------------5-7------|
|-----7----------|---------------------------|
|----------------|---------------------------|


  E E E E q.    E   E E E Q   Q  E   E E E E q.    E   E H     +Q.    +W
|-----------------|----------------|-----------------|--------------|------|
|-----------------|----------------|-----------------|--------------|------|
|-----------------|----------------|-----------------|--------------|------|
|-5-7-7-5-7-----7-|-5-7-7-7------7-|-5-7-7-5-7-----5-|-7-5-----(5)--|-(5)--|
|-5-7-7-5-7-----7-|-5-7-7-7------7-|-5-7-7-5-7-----5-|-7-5-----(5)--|-(5)--|
|-3-5-5-3-5-----5-|-3-5-5-5------5-|-3-5-5-3-5-----3-|-5-3-----(3)--|-(3)--|
|
| E E E E Q   E E   E E Q E E Q      E E E E Q   Q       q  H   Q      W
|-----------------|----------------|-----------------|--------------|------|
|-----------------|----------------|-----------------|--------------|------|
|---5-9s5---------|-5-9s5----------|-5---5-7s9---5---|--------------|------|
|-7-------7-----7-|-------7-5-7----|---7-------------|---7--5-------|------|
|-----------------|----------------|-----------------|--------------|------|
|-----------------|----------------|-----------------|--------------|------|


 Verse
  E E E E q.   E   E E E Q  Q  E   E E E E q.   E   E E E Q E E E
|----------------|---------------|----------------|----------------|
|----------------|---------------|----------------|----------------|
|----------------|---------------|----------------|----------------|
|-5-7-7-5-7----7-|-5-7-7-7-----7-|-5-7-7-5-7----7-|-5-7-7-7-7-7-7--|
|-5-7-7-5-7----7-|-5-7-7-7-----7-|-5-7-7-5-7----7-|-5-7-7-7-7-7-7--|
|-3-5-5-3-5----5-|-3-5-5-5-----5-|-3-5-5-3-5----5-|-3-5-5-5-5-5-5--|


  W            +W         W             +W
|----------|----------|--------|---------------|
|----------|----------|--------|---------------|
|----------|----------|--------|---------------|
|-5--------|---(5)----|---7----|--------(7)----|
|-5--------|---(5)----|---7----|--------(7)----|
|-3--------|---(3)----|---5----|--------(5)----|


  E E E E q.   E   E E E Q  Q  E   E E E E q.   E    E  E E Q  E E E
|----------------|---------------|----------------|------------------|
|----------------|---------------|----------------|------------------|
|----------------|---------------|----------------|------------------|
|-5-7-7-5-7----7-|-5-7-7-7-----7-|-5-7-7-5-7----7-|--5--7-7-7--7-7-7-|
|-5-7-7-5-7----7-|-5-7-7-7-----7-|-5-7-7-5-7----7-|--5--7-7-7--7-7-7-|
|-3-5-5-3-5----5-|-3-5-5-5-----5-|-3-5-5-3-5----5-|--3--5-5-5--5-5-5-|
|
| Gtr II
|         W          W               W               W
|----------------|---------------|----------------|-17\--------------|
|----------------|---------------|----------------|------------------|
|----------------|---------------|----------------|------------------|
|----------------|---------------|----------------|------------------|
|----------------|---------------|----------------|------------------|
|----------------|---------------|----------------|------------------|


  Gtr I
  H          H         H        H
|---------------|--------------------|
|---------------|--------------------|
|---------------|--------------------|
|-5----------4--|------2--------4----|
|-5----------4--|------2--------4----|
|-3----------2--|------0--------2----|


  W           +W         W                      W
|--------|------------|----------------|-------------|
|--------|------------|----------------|-------------|
|--------|------------|----------------|-------------|
|-7------|----(7)-----|----------------|-------------|
|-7------|----(7)-----|----------------|-------------|
|-5------|----(5)-----|----------------|-------------|
|
| Gtr II
|    W     W             E E E E E E Q    +W
|--------|------------|----------------|-------------|
|--------|------------|----------------|-------------|
|--------|------------|----------------|-------------|
|--------|------------|-/7-5-----------|-------------|
|--------|------------|------7-5-3-5---|-------------|
|--------|------------|--------------3-|--(3)--------|


 Verse 2
  E E E E q.   E   E E E Q  Q  E
|----------------|---------------|
|----------------|---------------|
|----------------|---------------|
|-5-7-7-5-7----7-|-5-7-7-7-----7-|
|-5-7-7-5-7----7-|-5-7-7-7-----7-|
|-3-5-5-3-5----5-|-3-5-5-5-----5-|
|
| W                W
|----------------|---------------|
|----------------|---------------|
|----------------|---------------|
|----------------|---------------|
|----------------|---------------|
|----------------|---------------|


    E E        E            E q.   E   E  E     E Q  E  E E
|------------------------------------|------------------------|
|------------------------------------|------------------------|
|------------------------------------|------------------------|
|---5-7--------7------------5-7----7-|-5--7-----7-7--7--7-7---|
|---5-7--------7------------5-7----7-|-5--7-----7-7--7--7-7---|
|---3-5--------5------------3-5----5-|-3--5-----5-5--5--5-5---|
|
|        |-----3------|
| H      Q     Q      Q                   W
|-------15b17-15pb17-15pb17----------|---15pb17---------------|
|------------------------------------|------------------------|
|------------------------------------|------------------------|
|------------------------------------|------------------------|
|------------------------------------|------------------------|
|------------------------------------|------------------------|


   W               +W           W                          +W
|----------------|------------|---------------------|---------------|
|----------------|------------|---------------------|---------------|
|----------------|------------|---------------------|---------------|
|--5-------------|-(5)--------|-7-------------------|------(7)------|
|--5-------------|-(5)--------|-7-------------------|------(7)------|
|--3-------------|-(3)--------|-5-------------------|------(5)------|
|
|  H.       E  E    W           H  E    S  S  e   E    +Q   q   H
|-15-------12----|------------|---------------------|---------------|
|-------------15-|-13---------|---------------------|---------------|
|----------------|------------|--------14p12-----12-|-(12)-14-------|
|----------------|------------|--------------14-----|---------------|
|----------------|------------|---------------------|---------------|
|----------------|------------|---------------------|---------------|


  E E E E  q.               E    E    E E Q  Q  E
|-----------------------------|-------------------|
|-----------------------------|-------------------|
|-----------------------------|-------------------|
|-5-7-7-5--7----------------7-|--5----7-7-7-----7-|
|-5-7-7-5--7----------------7-|--5----7-7-7-----7-|
|-3-5-5-3--5----------------5-|--3----5-5-5-----5-|
|
|          |-----3-----|
| H        Q     Q     Q         H              H
|---------15b17-15b17-15b17---|-15b17-------------|
|-----------------------------|-------------------|
|-----------------------------|-------------------|
|-----------------------------|-------------------|
|-----------------------------|-------------------|
|-----------------------------|-------------------|


  E  E E  E  q.        E             E  E E Q  E E E
|--------------------------------|-------------------|
|--------------------------------|-------------------|
|--------------------------------|-------------------|
|-5--7-7--5--7---------7---------|---5--7-7-7--7-7-7-|
|-5--7-7--5--7---------7---------|---5--7-7-7--7-7-7-|
|-3--5-5--3--5---------5---------|---3--5-5-5--5-5-5-|
|
| E  E    S  S   E  E  S  S  +Q     +W
|---12---15-12-----12-12-10-(10)-|-(10)--------------|
|---------------15---------------|-------------------|
|--------------------------------|-------------------|
|--------------------------------|-------------------|
|--------------------------------|-------------------|
|--------------------------------|-------------------|


  H     H      H    H           W                 +W
|------------|----------|----------------|---------------|
|------------|----------|----------------|---------------|
|------------|----------|----------------|---------------|
|-5-----4----|-2----4---|-------7--------|--------(7)----|
|-5-----4----|-2----4---|-------7--------|--------(7)----|
|-3-----2----|-0----2---|-------5--------|--------(5)----|
|
|    W         W          W                +W
|------------|----------|----------------|---------------|
|------------|----------|----------------|---------------|
|------------|----------|----------------|---------------|
|------------|----------|-5tr7-----------|-(5tr7)--------|
|------------|----------|----------------|---------------|
|------------|----------|----------------|---------------|


 Chorus
  E E E E E E E E   E E E E E E E E    W
|-----------------|-----------------|--------------------------|
|-----------------|-----------------|--------------------------|
|-7-7-7-7-7-7-7-7-|-5-5-5-5-5-5-5-5-|--------------------------|
|-7-7-7-7-7-7-7-7-|-5-5-5-5-5-5-5-5-|--7-----------------------|
|-5-5-5-5-5-5-5-5-|-3-3-3-3-3-3-3-3-|--7-----------------------|
|-----------------|-----------------|--5-----------------------|
|
|     W                         W           H    E Q  E
|-----------------|-----------------|--------------------------|
|-----------------|-----------------|--------------------------|
|-----------------|-----------------|--------------7--5b5.5----|
|-----------------|-----------------|--------------------------|
|-----------------|-----------------|--------------------------|
|-----------------|-----------------|--------------------------|


  +W                  E E E E E E E E   E E E E E E E E
|-------------------|-----------------|--------------------|
|-------------------|-----------------|--------------------|
|-------------------|-7-7-7-7-7-7-7-7-|-5-5-5-5-5-5-5-5----|
|-(7)---------------|-7-7-7-7-7-7-7-7-|-5-5-5-5-5-5-5-5----|
|-(7)---------------|-5-5-5-5-5-5-5-5-|-3-3-3-3-3-3-3-3----|
|-(5)---------------|-----------------|--------------------|
|
|  H     E Q  E       H         H         H       H
|-------------------|-----------------|--------------------|
|-------------------|-----------------|--------------------|
|----------7--5b5.5-|-----------------|--------------------|
|--7----------------|-7---------------|--------------------|
|-------------------|-----------------|--------------------|
|-------------------|-----------------|--------------------|


  W                 +W
|-----------------|-------------------|
|-----------------|-------------------|
|-----------------|-------------------|
|-7---------------|-(7)---------------|
|-7---------------|-(7)---------------|
|-5---------------|-(5)---------------|
|
| H    E Q  E        H     E Q  E
|-----------------|-------------------|
|-----------------|-------------------|
|--------7--5b5.5-|----------7--5b5.5-|
|-----------------|--7----------------|
|-----------------|-------------------|
|-----------------|-------------------|


  +W            Q  H.         +H      Q   Q
|-------------|------------|-------------------|
|-------------|------------|-------------------|
|-------------|----7-------|--(7)--------------|
|-(7)---------|----7-------|--(7)--------------|
|-(7)---------|----5-------|--(5)--------------|
|-(5)---------|------------|-------------------|
|
|  H     H      Q  H.         +H      E E E E
|-------------|---17-------|-(17)--------------|
|-------------|------------|---------/8-5------|
|-------------|------------|--------------7-5--|
|--7----------|------------|-------------------|
|-------------|------------|-------------------|
|-------------|------------|-------------------|


 Guitar Solo
  Gtr II
                               |--3--|
  H       H           Q.     E Q   Q Q
|-------------------|--------------------|
|-------------------|--------------------|
|---------5b5.5-----|----------5---9-5---|
|-7-----------------|--------7-----------|
|-------------------|--------------------|
|-------------------|--------------------|
|
| Gtr I
| E E E E q.      E   E  E E Q   Q     E
|-------------------|--------------------|
|-------------------|--------------------|
|-------------------|--------------------|
|-5-7-7-5-7-------7-|-5--7-7-7---------7-|
|-5-7-7-5-7-------7-|-5--7-7-7---------7-|
|-3-5-5-3-5-------5-|-3--5-5-5---------5-|


   |---3----|   |-3--|     |---3---|
  +Q    q   q   q  q q     q   q   q   q   S S E
|------------------------|-----------------------|
|------------------------|-----------------5-----|
|-(5)--------------5-7---|-8---9---5---7-----7-5-|
|-------7---5---7--------|-----------------------|
|------------------------|-----------------------|
|------------------------|-----------------------|
|
|  E  E   E   E q.     E   E E   E   Q   E E   E
|------------------------|-----------------------|
|------------------------|-----------------------|
|------------------------|-----------------------|
|--5--7---7---5-7------7-|-5-7---7---7---7-7---7-|
|--5--7---7---5-7------7-|-5-7---7---7---7-7---7-|
|--3--5---5---3-5------5-|-3-5---5---5---5-5---5-|


  W          +E  E Q.   Q  E   E E Q.    E E E    E  E Q.  E E E
|----------|-------5---------|-------------5---|-----------------|
|----------|-----------------|-----------------|-----------------|
|-7--------|-(7)-7------7--5-|-----------5---5-|--4--------------|
|----------|-----------------|-7-5-7-----------|-----7-------5-7-|
|----------|-----------------|-----------------|-------7---7-----|
|----------|-----------------|-----------------|-----------------|
|
| W          +W                W                 +W
|----------|-----------------|-----------------|-----------------|
|----------|-----------------|-----------------|-----------------|
|----------|-----------------|-----------------|-----------------|
|-5--------|-(5)-------------|-7---------------|-(7)-------------|
|-5--------|-(5)-------------|-7---------------|-(7)-------------|
|-3--------|-(3)-------------|-5---------------|-(5)-------------|

[ Tab from: http://www.guitaretab.com/d/deep-purple/173025.html ]
  Q   E E Q   E E   Q   E E Q   E E   Q   E E E  E E E   E E   E E E E S S E
|-----------------|-----------------|------------------|---------------------|
|-5-------5-------|-5-------5-------|-5-------5------5-|-------5---5---5-----|
|-----5-------5---|-----5-------5---|-----5------5-----|-5-------5---5---7-5-|
|-------7-------7-|-------7-------7-|-------7------7---|---7-----------------|
|-----------------|-----------------|------------------|---------------------|
|-----------------|-----------------|------------------|---------------------|
|
| E E E E q.    E   E E E Q   Q   E   E E E E q.     E   E E E Q   E E   E
|-----------------|-----------------|------------------|---------------------|
|-----------------|-----------------|------------------|---------------------|
|-----------------|-----------------|------------------|---------------------|
|-5-7-7-5-7-----7-|-5-7-7-7-------7-|-5-7-7-5-7------7-|-5-7-7-7---7-7---7---|
|-5-7-7-5-7-----7-|-5-7-7-7-------7-|-5-7-7-5-7------7-|-5-7-7-7---7-7---7---|
|-3-5-5-3-5-----5-|-3-5-5-5-------5-|-3-5-5-3-5------5-|-3-5-5-5---5-5---5---|


  H    E E  Q     E  Q.      Q      S  S  E
|--------5-17--|-17-22b24---22b24--20-22-20-|
|------5-------|----------------------------|
|-7------------|----------------------------|
|--------------|----------------------------|
|--------------|----------------------------|
|--------------|----------------------------|
|
| H    H          H          H
|--------------|----------------------------|
|--------------|----------------------------|
|--------------|----------------------------|
|-5----4-------|--2----------4--------------|
|-5----4-------|--2----------4--------------|
|-3----2-------|--0----------2--------------|


   +Q    S  S  S  S  E  S  S  E  S  S
|-(20)--------22-20----22-20----22-20----|
|-------22-22-------22-------22----------|
|----------------------------------------|
|----------------------------------------|
|----------------------------------------|
|----------------------------------------|
|
|   W
|----------------------------------------|
|----------------------------------------|
|----------------------------------------|
|---7------------------------------------|
|---7------------------------------------|
|---5------------------------------------|


                                 Chorus
   E   S  S  E  E  Q      Q       W
|-----22-20----20-22b24--22b24--|-----------------|
|-22--------22------------------|-----------------|
|-------------------------------|-----------------|
|-------------------------------|-----------------|
|-------------------------------|-----------------|
|-------------------------------|-----------------|
|
| +W                              E E E E E E E E
|-------------------------------|-----------------|
|-------------------------------|-----------------|
|-------------------------------|-7-7-7-7-7-7-7-7-|
|-(7)---------------------------|-7-7-7-7-7-7-7-7-|
|-(7)---------------------------|-5-5-5-5-5-5-5-5-|
|-(5)---------------------------|-----------------|


    W               H    E Q  E
|-----------------|------------------|
|-----------------|------------------|
|-----------------|--------7--5b5.5--|
|-----------------|------------------|
|-----------------|------------------|
|-----------------|------------------|
|
| E E E E E E E E   W
|-----------------|------------------|
|-----------------|------------------|
|-5-5-5-5-5-5-5-5-|------------------|
|-5-5-5-5-5-5-5-5-|-7----------------|
|-3-3-3-3-3-3-3-3-|-7----------------|
|-----------------|-5----------------|


   H     E Q  E       H       H         H       H
|-------------------|-----------------|--------------------|
|-------------------|-----------------|--------------------|
|----------7--5b5.5-|-----------------|--------------------|
|--7----------------|-7---------------|--------------------|
|-------------------|-----------------|--------------------|
|-------------------|-----------------|--------------------|
|
| +W                  E E E E E E E E   E E E E E E E E
|-------------------|-----------------|--------------------|
|-------------------|-----------------|--------------------|
|-------------------|-7-7-7-7-7-7-7-7-|-5-5-5-5-5-5-5-5----|
|-(7)---------------|-7-7-7-7-7-7-7-7-|-5-5-5-5-5-5-5-5----|
|-(7)---------------|-5-5-5-5-5-5-5-5-|-3-3-3-3-3-3-3-3----|
|-(5)---------------|-----------------|--------------------|


  Gtr II
  H    E Q  E        H     E Q  E         H         H         H       H
|-----------------|-------------------|-----------------|-----------------|
|-----------------|-------------------|-----------------|-----------------|
|--------7--5b5.5-|----------7--5b5.5-|-----------------|-----------------|
|-----------------|--7----------------|-----------------|-----------------|
|-----------------|-------------------|-----------------|-----------------|
|-----------------|-------------------|-----------------|-----------------|
|
| Gtr I
| W                 +W                  E E E E E E E E   E E E E E E E E
|-----------------|-------------------|-----------------|-----------------|
|-----------------|-------------------|-----------------|-----------------|
|-----------------|-------------------|-7-7-7-7-7-7-7-7-|-5-5-5-5-5-5-5-5-|
|-7---------------|-(7)---------------|-7-7-7-7-7-7-7-7-|-5-5-5-5-5-5-5-5-|
|-7---------------|-(7)---------------|-5-5-5-5-5-5-5-5-|-3-3-3-3-3-3-3-3-|
|-5---------------|-(5)---------------|-----------------|-----------------|


 Interlude
  Q=70
  Gtr I
  W            W            W          W
|-----------|-----------|-----------|-------------|
|-----------|-----------|-----------|-------------|
|-----------|-----------|-----------|-------------|
|-5---------|--7--------|---5-------|--7----------|
|-5---------|--7--------|---5-------|--7----------|
|-3---------|--5--------|---3-------|--5----------|
|
|    Gtr II
|                                               <
|    W              W          W          H     H
|-----------|-----------|-----------|----------12-|
|-----------|-----------|-----------|-------------|
|-----------|-----------|-----------|-------------|
|-----------|-----------|-----------|-------------|
|-----------|-----------|-----------|-------------|
|-----------|-----------|-----------|-------------|


  W                                 W
|------------------------|-----------------------------|
|------------------------|-----------------------------|
|------------------------|-----------------------------|
|-5----------------------|----------7------------------|
|-5----------------------|----------7------------------|
|-3----------------------|----------5------------------|
|
| Gtr II
| H     E.   S    +E   E    +S   E.    E.  E.  E.  E.
|------------------------|-----------------------------|
|------15---14---(14)----|-----------------------------|
|-9-------------------14-|-(14)-------------------11---|
|------------------------|------12----12--12--14-------|
|------------------------|-----------------------------|
|------------------------|-----------------------------|


   W                 W
|----------------|----------------|
|----------------|----------------|
|----------------|----------------|
|--5-------------|---7------------|
|--5-------------|---7------------|
|--3-------------|---5------------|
|
|  H.  S   E.       +E   H E  Q
|----------------|----------------|
|----------------|----------------|
|-12------11-----|-(11)-----------|
|----------------|------14---14/--|
|----------------|----------------|
|----------------|----------------|


   W                 W
|-----------------|----------------------------|
|-----------------|----------------------------|
|-----------------|----------------------------|
|--5--------------|--7-------------------------|
|--5--------------|--7-------------------------|
|--3--------------|--5-------------------------|
|
|                    >                 <  <
|  H.    E.  S       E.  S  E  S  Q.   S  S  S
|-17----17--17----|----------------------------|
|-----------------|-15--14------------------14-|
|-----------------|--------14------------14----|
|-----------------|-----------14-12--/14-------|
|-----------------|----------------------------|
|-----------------|----------------------------|


   W                              W
|------------------------------|---------------------------------------|
|------------------------------|---------------------------------------|
|------------------------------|---------------------------------------|
|--5---------------------------|--7------------------------------------|
|--5---------------------------|--7------------------------------------|
|--3---------------------------|--5------------------------------------|
|
|  S  S  S  S  H  +S   S  S  S    S  S  S S  S  S  S  S  Q S   S  S  S
|------------------------------|---------------------------------17-17-|
|-14h15p14------------------14-|-15-14------15-14------------/17-------|
|----------14------------14----|-------14-x-------14----14-------------|
|-------------14-(14)-14-------|---------------------14----------------|
|------------------------------|---------------------------------------|
|------------------------------|---------------------------------------|


        W
|----------------------------------------------------------------|
|----------------------------------------------------------------|
|----------------------------------------------------------------|
|-------5--------------------------------------------------------|
|-------5--------------------------------------------------------|
|-------3--------------------------------------------------------|
|
|   S   S  S   S    S    S    S    S   S    E   S    E   S     S
|-(17)-15-12-(17)-(15)-(12)-(17)-(15)-12-------19-------17----17-|
|-----------------------------------------/19------/17-----------|
|----------------------------------------------------------------|
|----------------------------------------------------------------|
|----------------------------------------------------------------|
|----------------------------------------------------------------|


        W                                   W
|--------------------------------------|--------------------------------|
|--------------------------------------|--------------------------------|
|--------------------------------------|--------------------------------|
|-------7------------------------------|----5---------------------------|
|-------7------------------------------|----5---------------------------|
|-------5------------------------------|----3---------------------------|
|
|  +S   S  e   E  S  S  S  S  E.  E  S     +E   E.   E.    E.  E.  E
|-(17)-15-15---------------------------|------------12---/17--17--17----|
|------------/15--------------------14-|--(14)-15-----------------------|
|----------------14-12-14-12-14--14----|--------------------------------|
|--------------------------------------|--------------------------------|
|--------------------------------------|--------------------------------|
|--------------------------------------|--------------------------------|


                                                   Q
    W
|--------------------------------------------------|
|--------------------------------------------------|
|--------------------------------------------------|
|---7----------------------------------------------|
|---7----------------------------------------------|
|---5----------------------------------------------|
|
|  +S    S  S  S  S  S  S  S  S  S  S  S  S  S  E
|-(17)-/21-21-21-21-21-21-21-21-21-21-21-21-21-21\-|
|--------------------------------------------------|
|--------------------------------------------------|
|--------------------------------------------------|
|--------------------------------------------------|
|--------------------------------------------------|


 =140
  E E E E E E E E   E E E E E E E E
|-----------------|-------------------|
|-----------------|-------------------|
|-7-7-7-7-7-7-7-7-|-5-5-5-5-5-5-5-5---|
|-7-7-7-7-7-7-7-7-|-5-5-5-5-5-5-5-5---|
|-5-5-5-5-5-5-5-5-|-3-3-3-3-3-3-3-3---|
|-----------------|-------------------|
|
| H       H               H       H
|-----------------|-------------------|
|-----------------|-------------------|
|-----------------|-------------------|
|-----------------|-------------------|
|-----------------|-------------------|
|-----------------|-------------------|


  W                 +W            E E E E E E E E   E E E E E E E E
|-----------------|-------------|-----------------|-----------------|
|-----------------|-------------|-----------------|-----------------|
|-----------------|-------------|-7-7-7-7-7-7-7-7-|-5-5-5-5-5-5-5-5-|
|-7---------------|-(7)---------|-7-7-7-7-7-7-7-7-|-5-5-5-5-5-5-5-5-|
|-7---------------|-(7)---------|-5-5-5-5-5-5-5-5-|-3-3-3-3-3-3-3-3-|
|-5---------------|-(5)---------|-----------------|-----------------|
|
| H    E Q  E        H    H         W                 W
|-----------------|-------------|-----------------|-----------------|
|-----------------|-------------|-----------------|-----------------|
|--------7--5b5.5-|-------------|-----------------|-----------------|
|-----------------|--7----------|-----------------|-----------------|
|-----------------|-------------|-----------------|-----------------|
|-----------------|-------------|-----------------|-----------------|


  W                 +W            E E E E E E E E
|-----------------|-------------|-----------------|
|-----------------|-------------|-----------------|
|-----------------|-------------|-7-7-7-7-7-7-7-7-|
|-7---------------|-(7)---------|-7-7-7-7-7-7-7-7-|
|-7---------------|-(7)---------|-5-5-5-5-5-5-5-5-|
|-5---------------|-(5)---------|-----------------|
|
| H    E Q  E        H     H        W
|-----------------|-------------|-----------------|
|-----------------|-------------|-----------------|
|--------7--5b5.5-|-------------|-----------------|
|-----------------|--7----------|-----------------|
|-----------------|-------------|-----------------|
|-----------------|-------------|-----------------|


  E E  E  E     E     E  E  E
|---------------------------------|
|---------------------------------|
|-5-5--5--5-----5-----5--5--5-----|
|-5-5--5--5-----5-----5--5--5-----|
|-3-3--3--3-----3-----3--3--3-----|
|---------------------------------|
|
|   E  E  E     E     E  E  E  E
|--------15b17-15b17-15----17-17--|
|-----17----------------17--------|
|---------------------------------|
|---------------------------------|
|---------------------------------|
|---------------------------------|


    W               +W              E E E E E E E E   E E E E E E E E
|----------------|----------------|-----------------|-----------------|
|----------------|----------------|-----------------|-----------------|
|----------------|----------------|-7-7-7-7-7-7-7-7-|-5-5-5-5-5-5-5-5-|
|---7------------|--(7)-----------|-7-7-7-7-7-7-7-7-|-5-5-5-5-5-5-5-5-|
|---7------------|--(7)-----------|-5-5-5-5-5-5-5-5-|-3-3-3-3-3-3-3-3-|
|---5------------|--(5)-----------|-----------------|-----------------|
|
|  +H..        E    +Q      H.          W                 W
|-(17)--------17-|-(17)\----------|-----------------|-----------------|
|----------------|----------------|-----------------|-----------------|
|----------------|----------------|-----------------|-----------------|
|----------------|----------------|-----------------|-----------------|
|----------------|----------------|-----------------|-----------------|
|----------------|----------------|-----------------|-----------------|


  Gtr II
  E S S E E S S E E S S   E E S S E E S S E E
|-----------------------|---------------------|
|-----------------------|---------------------|
|---------5-------------|---5---------------5-|
|-7-7-5-----7-5---7-7-5-|-----7-5---7-7-5-----|
|-------7-------7-------|-7-------7-------7---|
|-----------------------|---------------------|


  S S E E E H      +H     E S S E E
|----------------|--------------------|
|----------------|--------------------|
|----------------|----------------5---|
|-7-5------------|--------7-7-5-------|
|-----7-5-3------|--------------7-----|
|-----------3----|-(3)----------------|


  Gtr II
   S S E E S S E E S S  E   E S S E E S S E E  E        H +E  Q.
|-------------------------|----------------------|----------------|
|-------------------------|----------------------|----------------|
|----------------5--------|---------5------------|----------------|
|--7-5---7-7-5-----7-5----|-7-7-5-----7-5--------|----------------|
|------7-------7--------7-|-------7-------7-5--3-|------------5---|
|-------------------------|----------------------|------3-(3)-3---|


  Q    H.
|------------*|
|------------*|
|------------*|
|------------*|
|-7\---------*|
|-5\---------*|


Duration Legend
---------------
W - whole; H - half; Q - quarter; E - 8th; S - 16th; T - 32nd; X - 64th; a - acciaccatura
+ - note tied to previous; . - note dotted; .. - note double dotted
Uncapitalized letters represent notes that are staccato (1/2 duration)
Irregular groupings are notated above the duration line
Duration letters will always appear directly above the note/fret number it represents the
duration for.  Duration letters with no fret number below them represent rests.  Multi-
bar rests are notated in the form Wxn, where n is the number of bars to rest for.  Low
melody durations appear below the staff

Tablature Legend
----------------
 h   - hammer-on
 p   - pull-off
 b   - bend
 pb  - pre-bend
 r   - bend release (if no number after the r, then release immediately)
 /\  - slide into or out of (from/to "nowhere")
 s   - legato slide
 S   - shift slide
  - natural harmonic
[n]  - artificial harmonic
n(n) - tapped harmonic
 ~   - vibrato
 tr  - trill
 T   - tap
 TP  - trem. picking
 PM  - palm muting
\n/  - tremolo bar dip; n = amount to dip
 \n  - tremolo bar down
 n/  - tremolo bar up
/n\  - tremolo bar inverted dip
 =   - hold bend; also acts as connecting device for hammers/pulls
 <>  - volume swell (louder/softer)
 x   - on rhythm slash represents muted slash
 o   - on rhythm slash represents single note slash

Misc Legend
-----------
 |  - bar
||  - double bar
||o - repeat start
o|| - repeat end
*|  - double bar (ending)
 :  - bar (freetime)
 $  - Segno
 &  - Coda
Tempo markers -  = BPM(8/16=s8/s16), where s8 = swing 8ths, s16 = swing 16ths


***************************************************************************************
* Generated using Power Tab Editor by Brad Larsen - http://powertab.guitarnetwork.org *
***************************************************************************************
Related for Drifter tab
Advertisement will be closed in 10 seconds