Deep Purple - Mistreated chords

Highlighted       Show chord diagrams
Mistreated 
Upload by Pete Manley (White Roxx)

F#m                   A    E    F#m  
Iíve been mistreated, Iíve been abused. 

F#m                                 A       E    F#m  
Iíve been struck down- hearted, baby - Iíve been confused.

         A            Bm     (pause)           F#m        D    F#m    F#m  
íCause I know, yes, I know           Iíve been mistreated.

A                      E (pause)                    
Since my baby left me   - Iíve been losing my mind.
 
[F#m,E/G#,D/A,Bm](x2) [C#,C#/B,C#] (see below)

these are the chords (above) that come at the end of the chorusÖ

      F#m       E/G#         D/A       Bm           F#m       E/G#       
E||---2----2----2----2----|--2----2----2----2----|--2----2----2----2----|
B||---2----2----5----5----|--3----3----3----3----|--2----2----5----5----|
G||*--2----2----4----4----|--2----2----4----4----|--2----2----4----4----|
D||*--4----4----2----2----|--4----4----4----4----|--4----4----2----2----|
A||---4----4----2----2----|--0----0----2----2----|--4----4----2----2----|
E||---2----2----4----4----|----------------------|--2----2----4----4----|

 

  D/A       Bm           C#                     C#/B                  C#
--2----2----2----2----|----------------------|----------------------|---|
--3----3----3----3----|--6----6----6----6----|--4----4----4----4----|-6-|
--2----2----4----4----|--6----6----6----6----|--4----4----4----4----|-6-|
--4----4----4----4----|--6----6----6----6----|--4----4----4----4----|-6-|
--0----0----2----2----|--4----4----4----4----|--4----4----4----4----|-4-|
----------------------|----------------------|----------------------|---|
Tap to rate this tab
 
# A B C D E F G H I J K L M N O P Q R S T U V W X Y Z