Deerhunter - Helicopter tab

"Helicopter"
by Deerhunter
From the album: Halcyon Digest
Tabbed by J. Namer
----------------------------

Standard Tuning
Capo on 4th Fret


Verse
E||--0----1p----0---------|-------|------------|------------|-------||
B||--1---------------1----|--0----|------------|--0----0----|-------||
G||--0--------------------|--0----|--2----2----|--0----0----|-------||
D||--2--------------------|-------|--3----3----|------------|-------||
A||--3--------------------|-------|------------|------------|-------||
E||-----------------------|-------|------------|------------|-------||
 
 
Chorus
E||-------|-------|-------||
B||--1----|--0----|-------||
G||--2----|--0----|-------||
D||--3----|--2----|-------||
A||-------|--3----|-------||
E||-------|-------|-------||
Tap to rate this tab
 
# A B C D E F G H I J K L M N O P Q R S T U V W X Y Z