Song name
# A B C D E F G H I J K L M N O P Q R S T U V W X Y Z

Deerhunter - Nosebleed tab

-------------------------------------------------------------------------------
			     NOSEBLEED._.DEERHUNTER 
-------------------------------------------------------------------------------
Tabbed by: adrianleon
Email: golete@gmail.com

Tuning: This is my version of the song, I'm not quite sure if these are the 
correct lyrics, please let me know if they are. Enjoy!



G1___A_______________._______________E_______________.____________ 
         We  might  have  made  a mistake
G2
E|----------------------------------------------------------------
B|----------------------------------------------------------------
G|---9-------9-------9-------9-------4-------4-------4-------4----  
D|-------11------11------11------11------6-------6-------6-------6
A|----------------------------------------------------------------
E|----------------------------------------------------------------

  ___A_______________._______________E_______________.____________
         But      it's      too      late    so...
 
G1___F#m7____________._______________E_______________.____________
         She's  taking   off   her  clothes  and, 
G2
E|----------------------------------------------------------------
B|----------------------------------------------------------------
G|---6-------6-------6-------6-------4-------4-------4-------4----
D|-------4-------4-------4-------4-------6-------6-------6-------6
A|----------------------------------------------------------------
E|----------------------------------------------------------------

  ___F#m7____________._______________E_______________.____________
         I    got    a     bloody    nose    and...


  ___A_______________._______________E_______________.____________
         And   there's  nothing  to  say,
  ___A_______________._______________E_______________.____________
         in   my   room  it's   too  late    so
  ___F#m7____________._______________E_______________.____________
         I   had   to    make   a   choice   and
  ___F#m7____________._______________E_______________.____________
         I   chose   the   golden    noise   so



  ___Bm______._______F#m7____._______Bm______._______F#m7____E____ [x4]
      She might,      she might,      she might have gone too far     


We might have made a mistake, but its too late now to
to think about the past when you're living in the present
and everybody today, they get frustrated when
you're living in the past tense, and its the present

We might, we might, we might have gone too far...


SOLO: (not quite sure about the chords): 
                                                                                   _
G1___A_______________E_______________A_______________E_______________|
                                                                     |
G3                                                                   |
E|>>-7-7-7-7-7-7-7-7-7-7-7-7-7-7-7-7-9-9-9-9-9-9-9-7-7-7-5-5-4-4-----|
B|>>-------------------------------------------------------------7-7-|
G|>>-----------------------------------------------------------------|
D|>>-----------------------------------------------------------------|
A|>>-----------------------------------------------------------------|
E|>>-----------------------------------------------------------------|

Bm7_____________E_______________Bm7_____________E_______________  |
                                                                  |
                                                                  |
5-5-5-5-5-5-5-5-----------------5-5-5-5-5-5-5-5-----------------  |
----------------7-7-7-7-6-6-6-6-----------------7-7-7-7-6-6-6-6-  |
----------------------------------------------------------------  |
----------------------------------------------------------------  |
----------------------------------------------------------------  |
----------------------------------------------------------------  |

                                                                                            |x2
G2                                                                                   |
E|>>---------------------------------------------------------------------------------|
B|>>---------------------------------------------------------------------------------|
G|>>-----------------------------------------------------------------7-7-7-7-7-7-7-7-|
D|>>---------------------------------------------------------------------------------|
A|>>---------------------------------------------------------------------------------|
E|>>---------------------------------------------------------------------------------|

                                                  |
------------------------------------------------  |
------------------------------------------------  |
----------------7-7-7-7-7-9-9-9-----------------  |
9-9-9-7-6-6-6-6-----------------9-9-9-7-6-6-6-6-  |
------------------------------------------------  |
------------------------------------------------  |

                                                                                   _
We might, we might, we might have gone too far...
Tap to rate this tab
# A B C D E F G H I J K L M N O P Q R S T U V W X Y Z