Song name
# A B C D E F G H I J K L M N O P Q R S T U V W X Y Z

Deerhunter - Back To The Middle tab

Song: Back To The Middle
Artist: Deerhunter
Album: Monomania

This should cover it!
Look out for more Monomania tabs on the way!
Enjoi!

Intro/Verse/Outro
Guitar 1
e|---0~------0~-0~-0~--------0~----|
B|---0-0-0-0-0~-0~-0-0-0-0-0-0~----|
G|---7-6-9-6-7~-7~-7-6-9-6-4/1~----|
D|---7-------7~-7~-7---------2~----|
A|---------------------------------|
E|---------------------------------|

Verse/Outro
Guitar 2
D A E E

Chorus
Guitars/Keyboard
Bm A

Keyboard Lick for Guitar (Play Over 'A' Chord)
e|--7-5-5-7-5-5--|
B|-----7-----7---|
G|---------------|
D|---------------|
A|---------------|
E|---------------|

Solo
Guitar 1
e|----------------------------------------------------------------------------------|
B|--12-12-12-12-12-12-14-14-9-9-9-9-9-9-9-9-----------------------------------------|
G|------------------------------------------11-11-11-11-11-11-13-13-9-9-9-9-6-6-6-6-|
D|----------------------------------------------------------------------------------|x2
A|----------------------------------------------------------------------------------|
E|----------------------------------------------------------------------------------|

e|--7-7-7-7-7-7-9-9-0--0--0--0--0--0--0--0------------------------------------------|
B|--0-0-0-0-0-0-0-0-9b-9b-9b-9b-9b-9b-9b-9b-0--0--0--0--0--0--0--0--0-0-0-0-0-0-0-0-|
G|------------------------------------------11-11-11-11-11-11-13-13-9-9-9-9-6-6-6-6-|
D|----------------------------------------------------------------------------------|x2
A|----------------------------------------------------------------------------------|
E|----------------------------------------------------------------------------------|

Solo
Guitar 2
Bm A F#m E

ORDER:
INTRO (Same as VERSE Guitar 1 only)
VERSE
CHORUS
VERSE
CHORUS
SOLO
VERSE
CHORUS
OUTRO (Same as VERSE)
Tap to rate this tab
 
# A B C D E F G H I J K L M N O P Q R S T U V W X Y Z