Deerhunter - Sailing tab

Artist - Deerhunter
Album - Halcyon Digest

Just listen to the song for the rhythm.

-Verse

e|-6-----4--2-----5---0---|
B|-7-----4--2-----5---0---|
G|-8-----5--3-----6---1---|
D|-8-----6--4-----7---2---|
A|-6-----6--4-----7---2---|
E|-6-----4--2-----5---0---|

  Wind in my sails, 
  I lived for days,

-Chorus

e|-3--5--5-x-5-5-----|
B|-3--5--7-x-7-7/8---|
G|-4--5--7-x-7-7-----|
D|-5--7--7-x-7-7-----|
A|-5--7--5-x-5-5-----|
E|-3--5--5-x-5-5-----|

  Only fear
  Can make you feel lonely out here,


Lyrics

Wind in my sails, I lived for days.
No water, no food. It was good.
I didn't mind, no. Nowhere to be.
Nothing to see - except me.

Only fear
Can make you feel lonely out here.
You learn to accept
whatever you can get.

When there is no law
You've done nothing wrong.
You can't take too long
Making up songs.

Only fear
Can make you feel lonely out here.
You learn to accept
Whatever you can get.
Whatever you can get.

Lyrics by Deerhunter
tab by jbr
Tap to rate this tab
 
# A B C D E F G H I J K L M N O P Q R S T U V W X Y Z