Guitaretab - guitar tabs
Song name
# A B C D E F G H I J K L M N O P Q R S T U V W X Y Z

Def Leppard - Foolin tab

Intro repeat as many times as needed

e|---------------------------|--------------------0---------|
B|---------------------------|----------0-----------------0-|
G|--------2---4--------------|------4-------5---------5-----|
D|----2-------------2-------3|--------------3---------------|
A|0---------------------0----|------------------------------|
E|---------------------------|------------------------------|
 1   &   2   & (3) &   4  &   (1)  &   2   & (3) &   4   &

				    note difference vvvvvvv
e|---------------------------|--------------------0---------|
B|---------------------------|----------0-------------0-----|
G|--------2---4--------------|------4-------5-------------5-|
D|----2-------------2-------3|--------------3---------------|
A|0---------------------0----|------------------------------|
E|---------------------------|------------------------------|

I realized that long ago......
verse
E|-----------------|
B|-----------------|
G|-----------------|
D|-----------------|
A|-3-3-3-3-3-3-3-3-|
E|-1-1-1-1-1-1-1-1-|
PM................

Is anbody out there....

E|-------------------------------------------------------------------------|
B|-----------------------0-------------------------------------------------|
G|-2----------2----------2---------2----------5----------------------------|
D|-2----------2----------2---------2----------5----5s----------------------|
A|-0--0--0--------0--0------0--0-------0--0--------5s----------------------|
E|-------------------------------------------------------------------------|
PM.........................................

Then u play the palm muted part again till it changes to

E|--------|
B|--------|
G|-7s5--5-|
D|-5s3--3-|
A|-5s3--3-|
E|--------|

Does anybody wonder....

E|-------------------------------------------------------------------------|
B|-------------------------------------------------------------------------|
G|-2---------4--------4---------5-------5----------------------------------|
D|-2---------2--------2---------2-------5--5s------------------------------|
A|-0--0--0------0--0------0--0----0--0-----5s------------------------------|
E|-------------------------------------------------------------------------|




Anybody care......

E|-------------------------------------------------------------------------|
B|-------------------------------------------------------------------------|
G|-----4--5---7s-----------------------------------------------------------|
D|-2---2--3---5s-----2--2--------------------------------------------------|
A|-0----------5s-----0--0--------------------------------------------------|
E|----------------3b-------------------------------------------------------|

Oh i just gotta know........

E|-------------------------------------------------------------------------|
B|-------------------------------------------------------------------------|
G|---3---2-----3---2-----5--4-----5--4-----3--2----3--2----5--4------------|
D|--3-3---3--3---3---3--5-5---5--5-5--5---3-3--3--3-3--3--5-5---5----------|
A|-------------------------------------------------------------------------|
E|-------------------------------------------------------------------------|

Chorus

Cause baby im not f-f-foolin.........................
[ Tab from: http://www.guitaretab.com/d/def-leppard/4984.html ]
E|-------------------------------------------------------------------------|
B|-------------------------------------------------------------------------|
G|---------------------------------------3---------------------------------|
D|-5-5-5-5-5-5-5--7-5-7--7-7-7-7-7-7-7-3-3---------------------------------|
A|-3-3-3-3-3-3-3--5-3-5--5-5-5-5-5-5-5-3-1---------------------------------|
E|-----------------------0-0-0-0-0-0-0-3-----------------------------------|

Oh f-f-foolin

E|-------------------------------------------------------------------------|
B|-------------------------------------------------------------------------|
G|-------------------------------------------------------------------------|
D|-7-3-7-7-7-7-7-7-7-7-3-5---7-7-7---3--7-5-7-7-7-7-7-7-7-7-7--------------|
A|-5-5-5-5-5-5-5-5-5-5-3-5---5-5-5-3-1--5-3-5-5-5-5-5-5-5-5-5--3--5--------|
E|-------0-0-0-0-0-0-0-3-5---------1---------------------------1--3--------|


the chorus is the same pattern till u get to "Wont you stay with me a while.....


E|-------------------------------0-----------------------------------------|
B|----0-----0---------------0--------0-------------------------------------|
G|-------5-----5-----5--------5----5--5------------------------------------|
D|-0--------------0------0---------------7-7-7--------7--------------------|
A|---------------------------------------5-5-5-3---5--5--------------------|
E|---------------------------------------------1---3-----------------------|

Solo 

e│-------------------------------------------------------------------------│
B│-------------------------------------------------------------------------│
G│---5-to-6-to-7(tremolo)(then slide down the neck)------12b-10--1210-12b-│
D│-------------------------------------------------------------------------│
A│-------------------------------------------------------------------------│
E│-------------------------------------------------------------------------│

e│-------------------------------------------------------------------------│
B│-------------------------18-to-19-to-20-to-21-to-22(in tremolo)-22--22-22│
G│-7-5-7----14b(slowly)----------------------------------------------------│
D│-7-5-7-------------------------------------------------------------------│
A│-5-3-5-------------------------------------------------------------------│
E│-------------------------------------------------------------------------│

e│-----22-21----3-5h--------------------------3-2-0--3-3-2-0---------15-16-│
B│20-18--------------4-3-2-4-3-2--------------------------------3-1(whammy)│
G│---------------------------3-(whammy bar)--------------------------------│
D│-------------------------------------------------------------------------│
A│-------------------------------------------------------------------------│
E│--------------------------------------------------------------------------│



e│-15--16-17b-17----17-16-15--22-21(slide back down the neck)-------------│
B│-------------------------------------------------------------------------│
G│-------------------------------------------------------------------------│
D│-------------------------------------------------------------------------│
A│-------------------------------------------------------------------------│
E│-------------------------------------------------------------------------│
Related for Foolin tab