Song name
# A B C D E F G H I J K L M N O P Q R S T U V W X Y Z

Def Leppard - Foolin tab

-----------------------------------------------------------------------------
                             Def Leppard - Foolin'
-----------------------------------------------------------------------------


Tuning: Standard

Notes:
b -  to the fret in brackets
\\\\\\ - whammy bar


Intro/ Verse - (Clean)
|-----------------------------------------------0---------|
|------------0------------------------0-----------------0-|
|--------2------------------------4-------5---------5-----|
|----2-------------2----------3-----------3---------------|
|0---------------------0----------------------------------|
|---------------------------------------------------------|

Pre-Chorus A - (Distorted)

|------------------------------|
|------------------------------|
|--2-2----2-2----2-2----2-2----|
|--2-2----2-2----2-2----2-2----|
|--0-0-0--0-0-0--0-0-0--0-0-0--|
|------------------------------|
 PM  *     *     *     *

|----------------|
|----------------|
|--5-------------|
|--5------5------|
|--3------5------|
|---------3------|

|------------------------------|
|------------------------------|
|--2-2----2-2----2-2----2-2----|
|--2-2----2-2----2-2----2-2----|
|--0-0-0--0-0-0--0-0-0--0-0-0--|
|------------------------------|
 PM  *     *     *     *

|----------------|
|----------------|
|--7\5-----5-----|
|--7\5-----5-----|
|--5\3-----3-----|
|----------------|

|-----------------------|
|-----------------------|
|--2-2----4-4----5-5----|
|--2-2----2-2----3-3----|
|--0-0-0--0-0-0--0-0-0--|
|-----------------------|

|----------------|
|----------------|
|--5-------------|
|--5------5------|
|--3------5------|
|---------3------|

|-------------------------------------------------------|
|-------------------------------------------------------|
| --2---------4------5------7-----------------------2---|
|-- 2---------2------3------5-----------------------2---|
|---0-----------------------------------------------0---|
|----------------------------------------3b-------------|

Pre-Chorus B

|--------------------------------------------------------------------------|
|--------------------------------------------------------------------------|
|--------------------------------------------------------------------------|
|----3----2------2-----3----2------2-----5----4------4-----5----4------4---|
|--3----3---3--3-----3----3---3--3-----5----5---5--5-----5----5---5--5-----|
|--------------------------------------------------------------------------|

|--------------------------------------------------------|
|--------------------------------------------------------|
|--------------------------------------------------------|
|----3----2------2-----3----2------2-----5----4------4---|
|--3----3---3--3-----3----3---3--3-----5----5---5--5-----|
|--------------------------------------------------------|

|-----------------------|
|-----------------------|
|--5---5-5-5-5-5-5-5----|
|--5---5-5-5-5-5-5-5----|
|--3---3-3-3-3-3-3-3----|
|-----------------------|
 PM    * * * * * * *

Chorus - (Distorted)
|--------------------------------|
|--------------------------------|
|--7\5--7--7-7-7-7-7-7-7-----3---|
|--7\5--7--7-7-7-7-7-7-7--3--3---|
|--5\3--5--5-5-5-5-5-5-5--3--1---|
|-------------------------1------|
 PM        * * * * * * *

|--------------------------------|
|--------------------------------|
|--7\5--7--7-7-7-7-7-7-7---------|
|--7\5--7--7-7-7-7-7-7-7--3--5---|
|--5\3--5--5-5-5-5-5-5-5--3--5---|
|-------------------------1--3---|
 PM        * * * * * * *

|--------------------------------|
|--------------------------------|
|--7\5--7--7-7-7-7-7-7-7-----3---|
|--7\5--7--7-7-7-7-7-7-7--3--3---|
|--5\3--5--5-5-5-5-5-5-5--3--1---|
|-------------------------1------|
 PM        * * * * * * *

                                *1st chorus only
|------------------------------|-X-X-2---|
|------------------------------|-X-X-3---|
|--7\5--7--7-7-7-7-7-7-7-------|-X-X-2---|
|--7\5--7--7-7-7-7-7-7-7--3--5-|-X-X-0---|
|--5\3--5--5-5-5-5-5-5-5--3--5-|-X-X-----|
|-------------------------1--3-|-X-X-----|
 PM        * * * * * * *

Pre-Verse
|----------0---------|
|------0-----0-------|
|----5---5-----5-----|
|--7-------------7---| x2
|--------------------|
|--------------------|

Pre-Solo
|------------------|
|------------------|
|------------------|
|--5 (repeatedly)--| slowly bend string up while playing
|------------------|
|------------------|
at the end hold bend and let string back down

|--------------------------------------------|
|----13--------------------------------------|
|----12b(14)(12)-12----14----12----14b(16)---|
|--------------------------------------------|
|--------------------------------------------|
|--------------------------------------------|

|-----------------------------|
|--12-10-12-------------------|
|--12-10-12-------------------|
|-----------------------------|
|-----------------------------|
|-----------------0\\\\\\\\---|

|---------------------------------------------|
|--15b(18)(15)(18)(15)16b(18)18b(20)20b(22)---|
|---------------------------------------------|
|---------------------------------------------|
|---------------------------------------------|
|---------------------------------------------|

Solo
|-----------------------------20(22)-20---------------------------------------|
|--20b(22)(22)(22)(22)17------------------------------------------------------|
|-------------------------------------------7b(9)7-5--------------------------|
|---------------------------------------------------------7-5-----------------|
|---------------------------------------------------------------7h6h5-3-5-3---|
|-----------------------------------------------------------------------------|

|-----------------------------------------------------12--15b(17)--15---|
|--7b(8)-7-5-7--5--7-7b(8)-5-7b(8)-----------------13-------------------|
|---------------------------------------------5/14----------------------|
|-----------------------------------------------------------------------|
|-----------------------------------------------------------------------|
|-----------------------------------------------------------------------|

|-----------------------17-20--20b(22)-20-------------------------22b(24)20---|
|--------------17-20------------------------------------20b(22)20-------------|
|---17-19---------------------------------------------------------------------|
|-----------------------------------------------------------------------------|
|-----------------------------------------------------------------------------|
|-----------------------------------------------------------------------------|

Chorus 2
|----------0--0-0-------------|
|----------0--0-0-------------|
|--7\5--7--7--7-7---------3---|
|--7\5--7--7--7-7---0--3--3---|
|--5\3--5--5--5-5---0--3--1---|
|----------0--0-0---0--1------|
 

|--X-X------0--0-0---------------|
|--X-X------0--0-0---------------|
|--X-X-7\5--7--7-7---------------|
|--X-X-7\5--7--7-7-----0--3--5---|
|--X-X-5\3--5--5-5-----0--3--5---|
|--X-X------0--0-0-----0--1--3---|

|----------0--0-0-------------|
|----------0--0-0-------------|
|--7\5--7--7--7-7---------3---|
|--7\5--7--7--7-7---0--3--3---|
|--5\3--5--5--5-5---0--3--1---|
|----------0--0-0---0--1------|
 

|--X-X------0--0-0---------------|
|--X-X------0--0-0---------------|
|--X-X-7\5--7--7-7---------------|
|--X-X-7\5--7--7-7-----0--3--5---|
|--X-X-5\3--5--5-5-----0--3--5---|
|--X-X------0--0-0-----0--1--3---|

|-----------------------------------------|
|-----------------------------------------|
|--7\5--7------------------------7\5--7---|
|--7\5--7------------------------7\5--7---|
|--5\3--5------------------------5\3--5---|
|-----------------------------------------|
 PM                                     *


Intro x2 - Verse x8 - Pre-Chorus A & B - Chorus - Pre-Verse - Verse x8 - Pre-
Chorus A & B - Chorus - Pre-Solo - Solo - Pre-Chorus B - Chorus - Chorus 2
Tap to rate this tab
# A B C D E F G H I J K L M N O P Q R S T U V W X Y Z