Song name
# A B C D E F G H I J K L M N O P Q R S T U V W X Y Z

Deftones - Plastic tab

Help us improve GuitareTab! Take a short survey!
#----------------------------------PLEASE NOTE---------------------------------#
#This file is the author's own work and represents their interpretation of the #
#song. You may only use this file for private study, scholarship, or research. #
#------------------------------------------------------------------------------#

"Plastic"
Deftones

(drop D tuning)


Riff#1

E--------------------------|
B----------------------1-1-|
G----------------------1-1-|
D-2-2-3-2-2--2-2-2-3-2-1-1-|
A-0-0-1-0-0--0-0-0-1-0-----|
D-0-0-1-0-0--0-0-0-1-0-----|

Riff#2

E-----------------------------------|
B-------------------------------1-1-|
G-2-3-2-------------------------1-1-|
D------1-0-0-0-1-0-0--0-0-0-1-0-1-1-|
A------1-0-0-0-1-0-0--0-0-0-1-0-----|
D------1-0-0-0-1-0-0--0-0-0-1-0-----|
Related for Plastic tab