Song name
# A B C D E F G H I J K L M N O P Q R S T U V W X Y Z

Deftones - Rapture tab

The timing takes a little practice, but otherwise a pretty easy song.

Tuning- Db,Ab,Db,Gb,Bb,Eb  (drop D, down one half step)

e---------------------------------------------------|
b---------------------------------------------------|
g---------------------------------------------------| x2
d-7-7-7-7-7--8-8-8-8-8--11-11-11-11-11-11-11-11-11--|
a-7-7-7-7-7--8-8-8-8-8--11-11-11-11-11-11-11-11-11--|
D-7-7-7-7-7--8-8-8-8-8--11-11-11-11-11-11-11-11-11--|

e-----------------------------------------------------|
b-----------------------------------------------------|
g-----------------------------------------------------| x2
d-5h7-7-7-7-7--8-8-8-8-8--11-11-11-11-11-11-11-11-11--|
a-5h7-7-7-7-7--8-8-8-8-8--11-11-11-11-11-11-11-11-11--|
D-5h7-7-7-7-7--8-8-8-8-8--11-11-11-11-11-11-11-11-11--|


e-------------------------------------|
b-------------------------------------|
g-------------------------------------| x4
d-------3-3-1-1-1------1-1-1-1-1-1-1--|
a-------------------------------------|
D-0-0-0-------------------------------|

Play once quickly, right before going into the next riff:
e-------|
b-------|
g-------|
d-3-3-3-|
a-------|
D-------|

e-----------------------------------|
b-----------------------------------|
g-----------------------------------|
d-0-0-0-3-3-1-1-1----0-0-3-3-1-1-1--| x4
a-0-0-0-3-3-1-1-1----0-0-3-3-1-1-1--|
D-0-0-0-3-3-1-1-1----0-0-3-3-1-1-1--|


e-------------------------------------------------|
b-------------------------------------------------|
g-------------------------------------------------| x2
d-5h7-7/8-8/11-11-11-5h7-7/8-8/11---11---11---11--|
a-5h7-7/8-8/11-11-11-5h7-7/8-8/11---11---11---11--|
D-5h7-7/8-8/11-11-11-5h7-7/8-8/11---11---11---11--|


e-----------------------------------------------------|
b-----------------------------------------------------|
g-----------------------------------------------------| x4
d-5h7-7-7-7-7--8-8-8-8-8--11-11-11-11-11-11-11-11-11--|
a-5h7-7-7-7-7--8-8-8-8-8--11-11-11-11-11-11-11-11-11--|
D-5h7-7-7-7-7--8-8-8-8-8--11-11-11-11-11-11-11-11-11--|


e-----------------------------------|
b-----------------------------------|
g-----------------------------------|
d-0-0-0-3-3-1-1-1----0-0-3-3-1-1-1--| x4
a-0-0-0-3-3-1-1-1----0-0-3-3-1-1-1--|
D-0-0-0-3-3-1-1-1----0-0-3-3-1-1-1--|


e-------------------------------------------------|
b-------------------------------------------------|
g-------------------------------------------------| x2
d-5h7-7/8-8/11-11-11-5h7-7/8-8/11---11---11---11--|
a-5h7-7/8-8/11-11-11-5h7-7/8-8/11---11---11---11--|
D-5h7-7/8-8/11-11-11-5h7-7/8-8/11---11---11---11--|


e-------------------------------------|
b-------------------------------------|
g-------------------------------------| x4
d-------3-3-1-1-1------1-1-1-1-1-1-1--|
a-------------------------------------|
D-0-0-0-------------------------------|


e-----------------------------------------------------|
b-----------------------------------------------------|
g-----------------------------------------------------| x8
d-5h7-7-7-7-7--8-8-8-8-8--11-11-11-11-11-11-11-11-11--|
a-5h7-7-7-7-7--8-8-8-8-8--11-11-11-11-11-11-11-11-11--|
D-5h7-7-7-7-7--8-8-8-8-8--11-11-11-11-11-11-11-11-11--|


END
Tap to rate this tab
 
# A B C D E F G H I J K L M N O P Q R S T U V W X Y Z