Song name
# A B C D E F G H I J K L M N O P Q R S T U V W X Y Z

Deftones - Korea tab

Deftones  -  Korea

By: Ness_
Tuning: CGCFAD

Send your comments to ness_stuart@hotmail.com

D|-------------------------------------------------------------|
A|-------------------------------------------------------------|
F|--4--4--4--6--4--4--4--6-------------------------------------|
C|-------------------------------------------------------------|
G|--3--3--3--5--3--3--3--5-------------------------------------|
C|-------------------------------------------------------------|


D|-------------------------------------------------------------|
A|-------------------------------------------------------------|
F|-------6\5/6-------6\5/6-------6\5/6--4-4-4-4-4-4-4-4--------|       4x
C|--1-0---------1-0---------1-0--------------------------------|
G|--1-0--5\4/5--1-0--5\4/5--1-0--5\4/5--3-3-3-3-3-3-3-3--------|
C|--1-0---------1-0---------1-0--------------------------------|


D|-------------------------------------------------------------|
A|-------------------------------------------------------------|
F|--6---4-4-4-4-4-4-4-4-4-4-4-4-6------------------------------|
C|-------------------------------------------------------------|
G|--5---3-3-3-3-3-3-3-3-3-3-3-3-5------------------------------|
C|-------------------------------------------------------------|


D|-------------------------------------------------------------|
A|-------------------------------------------------------------|
F|------4-4-4-4-4-4-4-4-4-4-4-4-6------------------------------|       2x
C|-------------------------------------------------------------|
G|------3-3-3-3-3-3-3-3-3-3-3-3-5------------------------------|
C|-------------------------------------------------------------|


D|-------------------------------------------------------------|
A|-------------------------------------------------------------|
F|------4-4-4-4-4-4-4-4-4-4-4-4--------------------------------|
C|-------------------------------1-0---------------------------|
G|------3-3-3-3-3-3-3-3-3-3-3-3--1-0---------------------------|
C|-------------------------------1-0---------------------------|


D|-------------------------------------------------------------|
A|-------------------------------------------------------------|
F|------4-4-4-4-4-4-4-4-4-4-4-4-6------------------------------|       3x
C|-------------------------------------------------------------|
G|------3-3-3-3-3-3-3-3-3-3-3-3-5------------------------------|
C|-------------------------------------------------------------|


D|-------------------------------------------------------------|
A|-------------------------------------------------------------|
F|------4-4-4-4-4-4-4-4-4-4-4-4--------------------------------|
C|-------------------------------1-0---------------------------|
G|------3-3-3-3-3-3-3-3-3-3-3-3--1-0---------------------------|
C|-------------------------------1-0---------------------------|


D|-------------------------------------------------------------|
A|-------------------------------------------------------------|
F|-------6\5/6-------6\5/6-------6\5/6--4-4-4-4-4-4-4-4--------|       2x
C|--1-0---------1-0---------1-0--------------------------------|
G|--1-0--5\4/5--1-0--5\4/5--1-0--5\4/5--3-3-3-3-3-3-3-3--------|
C|--1-0---------1-0---------1-0--------------------------------|


D|-------------------------------------------------------------|
A|-------------------------------------------------------------|
F|--6---4-4-4-4-4-4-4-4-4-4-4-4-6------------------------------|
C|-------------------------------------------------------------|
G|--5---3-3-3-3-3-3-3-3-3-3-3-3-5------------------------------|
C|-------------------------------------------------------------|


D|-------------------------------------------------------------|
A|-------------------------------------------------------------|
F|------4-4-4-4-4-4-4-4-4-4-4-4-6------------------------------|       2x
C|-------------------------------------------------------------|
G|------3-3-3-3-3-3-3-3-3-3-3-3-5------------------------------|
C|-------------------------------------------------------------|


D|-------------------------------------------------------------|
A|-------------------------------------------------------------|
F|------4-4-4-4-4-4-4-4-4-4-4-4--------------------------------|
C|-------------------------------1-0---------------------------|
G|------3-3-3-3-3-3-3-3-3-3-3-3--1-0---------------------------|
C|-------------------------------1-0---------------------------|


D|-------------------------------------------------------------|
A|-------------------------------------------------------------|
F|------4-4-4-4-4-4-4-4-4-4-4-4-6------------------------------|       3x
C|-------------------------------------------------------------|
G|------3-3-3-3-3-3-3-3-3-3-3-3-5------------------------------|
C|-------------------------------------------------------------|


D|-------------------------------------------------------------|
A|-------------------------------------------------------------|
F|------4-4-4-4-4-4-4-4-4-4-4-4--------------------------------|
C|-------------------------------1-0---------------------------|
G|------3-3-3-3-3-3-3-3-3-3-3-3--1-0---------------------------|
C|-------------------------------1-0---------------------------|


D|-------------------------------------------------------------|
A|-------------------------------------------------------------|
F|-------6\5/6-------6\5/6-------6\5/6--4-4-4-4-4-4-4-4--------|        4x
C|--1-0---------1-0---------1-0--------------------------------|
G|--1-0--5\4/5--1-0--5\4/5--1-0--5\4/5--3-3-3-3-3-3-3-3--------|
C|--1-0---------1-0---------1-0--------------------------------|


D|-------------------------------------------------------------|
A|-------------------------------------------------------------|
F|-------------------------------------------------------------|        4x
C|-------------------------------------------------------------|
G|-------------------------------------------------------------|
C|-0-0-0-0-0-0-0-0-0-7-7-7-7-7-7-7-7-5-5-5-5-5-5-1-1-1-1-1-1-1-|


D|-------------------------------------------------------------|
A|-------------------------------------------------------------|
F|-------------------9-9-9-9-9-9-9-9-7-7-7-7-7-7-3-3-3-3-3-3-3-|        8x
C|-0-0-0-0-0-0-0-0-0-7-7-7-7-7-7-7-7-5-5-5-5-5-5-1-1-1-1-1-1-1-|
G|-0-0-0-0-0-0-0-0-0-7-7-7-7-7-7-7-7-5-5-5-5-5-5-1-1-1-1-1-1-1-|
C|-0-0-0-0-0-0-0-0-0-7-7-7-7-7-7-7-7-5-5-5-5-5-5-1-1-1-1-1-1-1-|


D|-------------------------------------------------------------|
A|-------------------------------------------------------------|
F|-------6\5/6-------6\5/6-------6\5/6--4-4-4-4-4-4-4-4--------|        4x
C|--1-0---------1-0---------1-0--------------------------------|
G|--1-0--5\4/5--1-0--5\4/5--1-0--5\4/5--3-3-3-3-3-3-3-3--------|
C|--1-0---------1-0---------1-0--------------------------------|
Tap to rate this tab
# A B C D E F G H I J K L M N O P Q R S T U V W X Y Z