Song name
# A B C D E F G H I J K L M N O P Q R S T U V W X Y Z

Deftones - 7 Words tab

Artist: Deftones
Song:  "7 words"
Album: Adrenaline 1995

Autor: Picardi Simone (BeQuietAndDriveSoFar) I've seen stef live and is 100% correct. 

This is my second tab of the same song,i' ve add the right chorus!!!

spiders82@hotmail.com

Legenda:

b  = Bend
-  = Palm Mute
/  = Slide


-Standard Tuning-


Intro & Verse 
|----------------------------------------------------|
|----------------------------------------------------|
|-9-9-9-9-9-9-9-9-9-9-10-10-10-10-10-10-10-10-10-10--|
|-9-9-9-9-9-9-9-9-9-9-10-10-10-10-10-10-10-10-10-10--|
|-7-7-7-7-7-7-7-7-7-7--8--8--8--8--8--8--8--8--8--8--|
|-0-0-0-0-0-0-0-0-0-0--0--0--0--0--0--0--0--0--0--0--|



 Chorus
|-0-0-0-0-0-0-0-0-|
|-0-0-0-0-0-0-0-0-|
|-0-0-0-0-0-0-0-0-|
|-0-0-0-0-0-0-0-0-|
|-0-0-0-0-0-0-0-0-|
|-0-0-0-0-0-0-0-0-|


|---------------------------------------|
|-------6b-6b-6b-6b-6b-6b-6b-6b-6b-6b---|
|-------7b-7b-7b-7b-7b-7b-7b-7b-7b-7b---|x3
|-9-9---7b-7b-7b-7b-7b-7b-7b-7b-7b-7b---|
|-7-7-----------------------------------|
|-0-0-----------------------------------|

|-------------------------------------------------|
|-------11--11--11--11--11--11--11--11--11--11----|
|-------x---x---x---x---x---x---x---x---x---x-----|x1
|-9-9---12b-12b-12b-12b-12b-12b-12b-12b-12b-12b---|
|-7-7---------------------------------------------|
|-0-0---------------------------------------------|

|---------------------------------------|
|-------6b-6b-6b-6b-6b-6b-6b-6b-6b-6b---|
|-------7b-7b-7b-7b-7b-7b-7b-7b-7b-7b---|x3
|-9-9---7b-7b-7b-7b-7b-7b-7b-7b-7b-7b---|
|-7-7-----------------------------------|
|-0-0-----------------------------------|

|-------------------------------------------------|
|-------11--11--11--11--11--11--11--11--11--11----|
|-------x---x---x---x---x---x---x---x---x---x-----|x1
|-9-9---12b-12b-12b-12b-12b-12b-12b-12b-12b-12b---|
|-7-7---------------------------------------------|
|-0-0---------------------------------------------|

Break
|----------------------|
|----------------------|
|----------------------|
|----------------------|
|-2--------0-0-0-0-0-0-|
|-0--------0-0-0-0-0-0-|
           - - - - - -

|---------------------------------------------------|
|---------------------------------------------------|
|---------------------------------------------------|
|-----------------------------------------------7----|
|-5h7-----8-8/7-7-7-7/8-8---5h7-----8-8-7-7-7-7/5-8-|
|-5h7-0-0-6-6/5-5-5-5/6-6---5h7-0-0-6-6-5-5-5-5---6-|
      - -		        - -


 Chorus in(3:23)

|---------------------------------------|
|-------6b-6b-6b-6b-6b-6b-6b-6b-6b-6b---|
|-------7b-7b-7b-7b-7b-7b-7b-7b-7b-7b---|x1
|-9-9---7b-7b-7b-7b-7b-7b-7b-7b-7b-7b---|
|-7-7-----------------------------------|
|-0-0-----------------------------------|

|-------------------------------------------------|
|-------11--11--11--11--11--11--11--11--11--11----|
|-------x---x---x---x---x---x---x---x---x---x-----|x1
|-9-9---12b-12b-12b-12b-12b-12b-12b-12b-12b-12b---|
|-7-7---------------------------------------------|
|-0-0---------------------------------------------|

|---------------------------------------|
|-------6b-6b-6b-6b-6b-6b-6b-6b-6b-6b---|
|-------7b-7b-7b-7b-7b-7b-7b-7b-7b-7b---|x1
|-9-9---7b-7b-7b-7b-7b-7b-7b-7b-7b-7b---|
|-7-7-----------------------------------|
|-0-0-----------------------------------|

|-------------------------------------------------|
|-------12--12--12--12--12--12--12--12--12--12----|
|-------x---x---x---x---x---x---x---x---x---x-----|x1
|-9-9---13b-13b-13b-13b-13b-13b-13b-13b-13b-13b---|
|-7-7---------------------------------------------|
|-0-0---------------------------------------------|

|---------------------------------------|
|-------6b-6b-6b-6b-6b-6b-6b-6b-6b-6b---|
|-------7b-7b-7b-7b-7b-7b-7b-7b-7b-7b---|x3
|-9-9---7b-7b-7b-7b-7b-7b-7b-7b-7b-7b---|
|-7-7-----------------------------------|
|-0-0-----------------------------------|

|-------------------------------------------------|
|-------11--11--11--11--11--11--11--11--11--11----|
|-------x---x---x---x---x---x---x---x---x---x-----|x1
|-9-9---12b-12b-12b-12b-12b-12b-12b-12b-12b-12b---|
|-7-7---------------------------------------------|
|-0-0---------------------------------------------|


end
|---------------|
|---------------|
|------6--------|
|------6--------|
|-4-4--4--3-3-3-|
|-2-2--4--1-1-1-|


Please Rate!

Tap to rate this tab
 
# A B C D E F G H I J K L M N O P Q R S T U V W X Y Z