Song name
# A B C D E F G H I J K L M N O P Q R S T U V W X Y Z

Deftones - Cherry Waves tab

This is my favorite song of of the "newer" deftones cd. This is how i play it and i 
it sounds pretty damn good. If you would like me to tab any other deftones songs just e-mail 
at deftones44330@yahoo.com, or just IM me at deftones44330.
tuning(low to high):cgcfad

(Intro)
Guitar 1(sounds good with a little bit of delay)
[------------------------9-----------------------------------------]
[--7-----------------------------8---------------------------------]
[------------------------------------------------------------------]
[------------------------------------------------------------------]
[------------------------------------------------------------------]
[------------------------------------------------------------------]

Guitar 2
[-9---9---9---9---9---9---9---9---9---9---9---9---9---9---9---9----]
[---7---7---7---7---7---7---7---7---8---8---8---8---8---8---8---8--]
[------------------------------------------------------------------]
[------------------------------------------------------------------]
[------------------------------------------------------------------]
[------------------------------------------------------------------]

Guitar 1
[------------------------------------------------------------------]
[--7---------------------7-----------------------------------------]
[--------------------------------8---------------------------------]
[------------------------------------------------------------------]
[------------------------------------------------------------------]
[------------------------------------------------------------------]

Guitar 2
[-9---9---9---9---9---9---9---9---9---9---9---9---9---9---------------]
[---7---7---7---7---7---7---7---7---8---8---8---8---8---8-10-10-10-10-]
[---------------------------------------------------------------------]
[---------------------------------------------------------------------]
[---------------------------------------------------------------------]
[---------------------------------------------------------------------]

(Verse)
Guitar 1
in a sea of waves                  we hug the same plank (saw your end)
[------------------------9-----------------------------------------]
[--7-----------------------------8---------------------------------]
[------------------------------------------------------------------]
[------------------------------------------------------------------]
[------------------------------------------------------------------]
[------------------------------------------------------------------]

Guitar 2
[-9---9---9---9---9---9---9---9---9---9---9---9---9---9---9---9----]
[---7---7---7---7---7---7---7---7---8---8---8---8---8---8---8---8--]
[------------------------------------------------------------------]
[------------------------------------------------------------------]
[------------------------------------------------------------------]
[------------------------------------------------------------------]

Guitar 1
just as i had rehearsed it       over in my brain  (I saw your end)
[------------------------------------------------------------------]
[--7---------------------7-----------------------------------------]
[--------------------------------8---------------------------------]
[------------------------------------------------------------------]
[------------------------------------------------------------------]
[------------------------------------------------------------------]

Guitar 2
[-9---9---9---9---9---9---9---9---9---9---9---9---9---9---9---9----]
[---7---7---7---7---7---7---7---7---8---8---8---8---8---8---8---8--]
[------------------------------------------------------------------]
[------------------------------------------------------------------]
[------------------------------------------------------------------]
[------------------------------------------------------------------]

.....if the waves
(Bridge A)for those of you that dont want to count its 8 measures
which makes it a total of 64 beats
 (Guitar 1 and 2)               SUCK!!!!
[------------------------------------------------------------------]
[------------------------------------------------------------------]
[-4-4-4-4-4-4-4-4-4-4-4-4-4-4-4-4-4-4-4-4-4-4-4-4-4-4-4-4-4-4-4-4--]
[-4-4-4-4-4-4-4-4-4-4-4-4-4-4-4-4-4-4-4-4-4-4-4-4-4-4-4-4-4-4-4-4--]
[-2-2-2-2-2-2-2-2-2-2-2-2-2-2-2-2-2-2-2-2-2-2-2-2-2-2-2-2-2-2-2-2--]
[------------------------------------------------------------------]

 (Guitar 1 and 2)
 You in                         And you drown           if like
[------------------------------------------------------------------]
[------------------------------------------------------------------]
[-4-4-4-4-4-4-4-4-4-4-4-4-4-4-4-4-4-4-4-4-4-4-4-4-4-4-4-4-4-4-4-4--]
[-4-4-4-4-4-4-4-4-4-4-4-4-4-4-4-4-4-4-4-4-4-4-4-4-4-4-4-4-4-4-4-4--]
[-2-2-2-2-2-2-2-2-2-2-2-2-2-2-2-2-2-2-2-2-2-2-2-2-2-2-2-2-2-2-2-2--]
[------------------------------------------------------------------]

 (Chorus)(Guitar 1 and 2)
you                   should
[-----------------------------------------]
[-----------------------------------------]
[-----------------------------------------]
[-2-2-2-2-2-2-2-2-2-2-2-2-2-2-2-2---------]
[-2-2-2-2-2-2-2-2-2-2-2-2-2-2-2-2---------]
[-2-2-2-2-2-2-2-2-2-2-2-2-2-2-2-2---------]

  sink     down                   beneath
[---------------------------------------------------]
[---------------------------------------------------]
[---------------------------------------------------]
[-11-11-11-11-11-11-11-11-11-11-11-11-11-11-11-11---]
[-11-11-11-11-11-11-11-11-11-11-11-11-11-11-11-11---]
[-11-11-11-11-11-11-11-11-11-11-11-11-11-11-11-11---]

ill   swim
[-----------------------------------------]
[-----------------------------------------]
[-----------------------------------------]
[-2-2-2-2-2-2-2-2-2-2-2-2-2-2-2-2---------]
[-2-2-2-2-2-2-2-2-2-2-2-2-2-2-2-2---------]
[-2-2-2-2-2-2-2-2-2-2-2-2-2-2-2-2---------]

                  down
[---------------------------------------------------]
[---------------------------------------------------]
[---------------------------------------------------]
[-11-11-11-11-11-11-11-11-11-11-11-11-11-11-11-11---]
[-11-11-11-11-11-11-11-11-11-11-11-11-11-11-11-11---]
[-11-11-11-11-11-11-11-11-11-11-11-11-11-11-11-11---]

would      you
[-----------------------------------------]
[-----------------------------------------]
[-----------------------------------------]
[-2-2-2-2-2-2-2-2-2-2-2-2-2-2-------------]
[-2-2-2-2-2-2-2-2-2-2-2-2-2-2-------------]
[-2-2-2-2-2-2-2-2-2-2-2-2-2-2-5b6---------]

         would you?
[-----------------------------------------]
[-----------------------------------------]
[-6---------------------------------------]
[-6---------------------------------------]
[-4---------------------------------------]
[-----------------------------------------]

verse intro
Guitar 1
[-11--12--11------------------------------]
[-------------------------12--------------]
[-----------------------------12----------]
[-----------------------------------------]
[-----------------------------------------]
[-----------------------------------------]

Guitar 2
[-9---9---9---9---9---9---9---9---9---9---9---9---9---9---9---9----]
[---7---7---7---7---7---7---7---7---8---8---8---8---8---8---8---8--]
[------------------------------------------------------------------]
[------------------------------------------------------------------]
[------------------------------------------------------------------]
[------------------------------------------------------------------]

Guitar 1
[-11--12--11------------------------------]
[-------------------------12--------------]
[-----------------------------12----------]
[-----------------------------------------]
[-----------------------------------------]
[-----------------------------------------]

Guitar 2
[-9---9---9---9---9---9---9---9---9---9---9---9---9---9---------------]
[---7---7---7---7---7---7---7---7---8---8---8---8---8---8-10-10-10-10-]
[---------------------------------------------------------------------]
[---------------------------------------------------------------------]
[---------------------------------------------------------------------]
[---------------------------------------------------------------------]

Verse
Guitar 1
you had the anchors over my             neck   (saw your end)
[------------------------9-----------------------------------------]
[--7-----------------------------8---------------------------------]
[------------------------------------------------------------------]
[------------------------------------------------------------------]
[------------------------------------------------------------------]
[------------------------------------------------------------------]

Guitar 2
[-9---9---9---9---9---9---9---9---9---9---9---9---9---9---9---9----]
[---7---7---7---7---7---7---7---7---8---8---8---8---8---8---8---8--]
[------------------------------------------------------------------]
[------------------------------------------------------------------]
[------------------------------------------------------------------]
[------------------------------------------------------------------]

Guitar 1
I liked it at first but the more you laughed the crazier i came
[------------------------------------------------------------------]
[--7---------------------7-----------------------------------------]
[--------------------------------8---------------------------------]
[------------------------------------------------------------------]
[------------------------------------------------------------------]
[------------------------------------------------------------------]

Guitar 2
[-9---9---9---9---9---9---9---9---9---9---9---9---9---9---9---9----]
[---7---7---7---7---7---7---7---7---8---8---8---8---8---8---8---8--]
[------------------------------------------------------------------]
[------------------------------------------------------------------]
[------------------------------------------------------------------]
[------------------------------------------------------------------]

.....if the waves
(Bridge A)
 (Guitar 1 and 2)               SUCK!!!!
[------------------------------------------------------------------]
[------------------------------------------------------------------]
[-4-4-4-4-4-4-4-4-4-4-4-4-4-4-4-4-4-4-4-4-4-4-4-4-4-4-4-4-4-4-4-4--]
[-4-4-4-4-4-4-4-4-4-4-4-4-4-4-4-4-4-4-4-4-4-4-4-4-4-4-4-4-4-4-4-4--]
[-2-2-2-2-2-2-2-2-2-2-2-2-2-2-2-2-2-2-2-2-2-2-2-2-2-2-2-2-2-2-2-2--]
[------------------------------------------------------------------]

 (Guitar 1 and 2)
 You in                         And you drown           if like
[------------------------------------------------------------------]
[------------------------------------------------------------------]
[-4-4-4-4-4-4-4-4-4-4-4-4-4-4-4-4-4-4-4-4-4-4-4-4-4-4-4-4-4-4-4-4--]
[-4-4-4-4-4-4-4-4-4-4-4-4-4-4-4-4-4-4-4-4-4-4-4-4-4-4-4-4-4-4-4-4--]
[-2-2-2-2-2-2-2-2-2-2-2-2-2-2-2-2-2-2-2-2-2-2-2-2-2-2-2-2-2-2-2-2--]
[------------------------------------------------------------------]

 (Chorus)(Guitar 1 and 2)
you                   should
[-----------------------------------------]
[-----------------------------------------]
[-----------------------------------------]
[-2-2-2-2-2-2-2-2-2-2-2-2-2-2-2-2---------]
[-2-2-2-2-2-2-2-2-2-2-2-2-2-2-2-2---------]
[-2-2-2-2-2-2-2-2-2-2-2-2-2-2-2-2---------]

  sink     down                   beneath
[---------------------------------------------------]
[---------------------------------------------------]
[---------------------------------------------------]
[-11-11-11-11-11-11-11-11-11-11-11-11-11-11-11-11---]
[-11-11-11-11-11-11-11-11-11-11-11-11-11-11-11-11---]
[-11-11-11-11-11-11-11-11-11-11-11-11-11-11-11-11---]

ill   swim
[-----------------------------------------]
[-----------------------------------------]
[-----------------------------------------]
[-2-2-2-2-2-2-2-2-2-2-2-2-2-2-2-2---------]
[-2-2-2-2-2-2-2-2-2-2-2-2-2-2-2-2---------]
[-2-2-2-2-2-2-2-2-2-2-2-2-2-2-2-2---------]

                  down
[---------------------------------------------------]
[---------------------------------------------------]
[---------------------------------------------------]
[-11-11-11-11-11-11-11-11-11-11-11-11-11-11-11-11---]
[-11-11-11-11-11-11-11-11-11-11-11-11-11-11-11-11---]
[-11-11-11-11-11-11-11-11-11-11-11-11-11-11-11-11---]

would      you?
[-----------------------------------------]
[-----------------------------------------]
[-----------------------------------------]
[-2-2-2-2-2-2-2-2-2-2-2-2-2-2-------------]
[-2-2-2-2-2-2-2-2-2-2-2-2-2-2-------------]
[-2-2-2-2-2-2-2-2-2-2-2-2-2-2-5b6---------]

 is   that      what     you    want?
[---------------------------------------------------]
[---------------------------------------------------]
[---------------------------------------------------]
[-11-11-11-11-11-11-11-11-11-11-11-11-11-11-11-11---]
[-11-11-11-11-11-11-11-11-11-11-11-11-11-11-11-11---]
[-11-11-11-11-11-11-11-11-11-11-11-11-11-11-11-11---]

would      you?
[-----------------------------------------]
[-----------------------------------------]
[-----------------------------------------]
[-2-2-2-2-2-2-2-2-2-2-2-2-2-2-------------]
[-2-2-2-2-2-2-2-2-2-2-2-2-2-2-------------]
[-2-2-2-2-2-2-2-2-2-2-2-2-2-2-5b6---------]

 well     that's    what    you've     got
[---------------------------------------------------]
[---------------------------------------------------]
[---------------------------------------------------]
[-11-11-11-11-11-11-11-11-11-11-11-11-11-11-11-11---]
[-11-11-11-11-11-11-11-11-11-11-11-11-11-11-11-11---]
[-11-11-11-11-11-11-11-11-11-11-11-11-11-11-11-11---]

Bridge B
Guitar 1 and 2
                 waves
[-----------------------------------------]
[------------------------2-2-2-2----------]
[------------------------2-2-2-2----------]
[-4-4-4-4-2---0--5-5-5-5-5-5-5-5----------]
[-4-4-4-4-2---0--5-5-5-5-5-5-5-5----------]
[-4-4-4-4-2---5--5-5-5-5-5-5-5-5----------]
                     after
[-----------------------------------------]
[------------------------2-2-2-2----------]
[------------------------2-2-2-2----------]
[-4-4-4-4-2---0--5-5-5-5-5-5-5-5----------]
[-4-4-4-4-2---0--5-5-5-5-5-5-5-5----------]
[-4-4-4-4-2---5--5-5-5-5-5-5-5-5----------]
                     waves
[-----------------------------------------]
[------------------------2-2-2-2----------]
[------------------------2-2-2-2----------]
[-4-4-4-4-2---0--5-5-5-5-5-5-5-5----------]
[-4-4-4-4-2---0--5-5-5-5-5-5-5-5----------]
[-4-4-4-4-2---5--5-5-5-5-5-5-5-5----------]

[-----------------------------------------]
[------------------------2-2-2-2----------]
[------------------------2-2-2-2----------]
[-4-4-4-4-2---0--5-5-5-5-5-5-5-5----------]
[-4-4-4-4-2---0--5-5-5-5-5-5-5-5----------]
[-4-4-4-4-2---5--5-5-5-5-5-5-5-5----------]

[----------------------------------------------------------------]
[-12-12-12-12-12-12-12-12-12-12-12-12-12-12-12-12----------------]
[-11-11-11-11-11-11-11-11-11-11-11-11-11-11-11-11----------------]
[-11-11-11-11-11-11-11-11-11-11-11-11-11-11-11-11----------------]
[--9--9--9--9--9--9--9--9--9--9--9--9--9--9--9--9----------------]
[--9--9--9--9--9--9--9--9--9--9--9--9--9--9--9--9----------------]

[----------------------------------------------------------------]
[-11-11-11-11-11-11-11-11-11-11-11-11-11-11-11-11----------------]
[-11-11-11-11-11-11-11-11-11-11-11-11-11-11-11-11----------------]
[-11-11-11-11-11-11-11-11-11-11-11-11-11-11-11-11----------------]
[--9--9--9--9--9--9--9--9--9--9--9--9--9--9--9--9----------------]
[--9--9--9--9--9--9--9--9--9--9--9--9--9--9--9--9----------------]

[----------------------------------------------------------------]
[-12-12-12-12-12-12-12-12-12-12-12-12-12-12-12-12----------------]
[-11-11-11-11-11-11-11-11-11-11-11-11-11-11-11-11----------------]
[-11-11-11-11-11-11-11-11-11-11-11-11-11-11-11-11----------------]
[--9--9--9--9--9--9--9--9--9--9--9--9--9--9--9--9----------------]
[--9--9--9--9--9--9--9--9--9--9--9--9--9--9--9--9----------------]
                                                   if like
[----------------------------------------------------------------]
[-11-11-11-11-11-11-11-11-11-11-11-11-11-11-11-11----------------]
[-11-11-11-11-11-11-11-11-11-11-11-11-11-11-11-11----------------]
[-11-11-11-11-11-11-11-11-11-11-11-11-11-11-11-11----------------]
[--9--9--9--9--9--9--9--9--9--9--9--9--9--9--9--9----------------]
[--9--9--9--9--9--9--9--9--9--9--9--9--9--9--9--9----------------]

(Chorus)(Guitar 1 and 2)
you                   should
[-----------------------------------------]
[-----------------------------------------]
[-----------------------------------------]
[-2-2-2-2-2-2-2-2-2-2-2-2-2-2-2-2---------]
[-2-2-2-2-2-2-2-2-2-2-2-2-2-2-2-2---------]
[-2-2-2-2-2-2-2-2-2-2-2-2-2-2-2-2---------]

  sink     down                   beneath
[---------------------------------------------------]
[---------------------------------------------------]
[---------------------------------------------------]
[-11-11-11-11-11-11-11-11-11-11-11-11-11-11-11-11---]
[-11-11-11-11-11-11-11-11-11-11-11-11-11-11-11-11---]
[-11-11-11-11-11-11-11-11-11-11-11-11-11-11-11-11---]

ill   swim
[-----------------------------------------]
[-----------------------------------------]
[-----------------------------------------]
[-2-2-2-2-2-2-2-2-2-2-2-2-2-2-2-2---------]
[-2-2-2-2-2-2-2-2-2-2-2-2-2-2-2-2---------]
[-2-2-2-2-2-2-2-2-2-2-2-2-2-2-2-2---------]

                  down
[---------------------------------------------------]
[---------------------------------------------------]
[---------------------------------------------------]
[-11-11-11-11-11-11-11-11-11-11-11-11-11-11-11-11---]
[-11-11-11-11-11-11-11-11-11-11-11-11-11-11-11-11---]
[-11-11-11-11-11-11-11-11-11-11-11-11-11-11-11-11---]

would      you?
[-----------------------------------------]
[-----------------------------------------]
[-----------------------------------------]
[-2-2-2-2-2-2-2-2-2-2-2-2-2-2-------------]
[-2-2-2-2-2-2-2-2-2-2-2-2-2-2-------------]
[-2-2-2-2-2-2-2-2-2-2-2-2-2-2-5b6---------]

 is   that      what     you    want?
[---------------------------------------------------]
[---------------------------------------------------]
[---------------------------------------------------]
[-11-11-11-11-11-11-11-11-11-11-11-11-11-11-11-11---]
[-11-11-11-11-11-11-11-11-11-11-11-11-11-11-11-11---]
[-11-11-11-11-11-11-11-11-11-11-11-11-11-11-11-11---]

would      you?
[-----------------------------------------]
[-----------------------------------------]
[-----------------------------------------]
[-2-2-2-2-2-2-2-2-2-2-2-2-2-2-------------]
[-2-2-2-2-2-2-2-2-2-2-2-2-2-2-------------]
[-2-2-2-2-2-2-2-2-2-2-2-2-2-2-5b6---------]

 well     that's    what    you've     got
[---------------------------------------------------]
[---------------------------------------------------]
[---------------------------------------------------]
[-11-11-11-11-11-11-11-11-11-11-11-11-11-11-11-11---]
[-11-11-11-11-11-11-11-11-11-11-11-11-11-11-11-11---]
[-11-11-11-11-11-11-11-11-11-11-11-11-11-11-11-11---]

would      you?
[-----------------------------------------]
[-----------------------------------------]
[-----------------------------------------]
[-2-2-2-2-2-2-2-2-2-2-2-2-2-2-------------]
[-2-2-2-2-2-2-2-2-2-2-2-2-2-2-------------]
[-2-2-2-2-2-2-2-2-2-2-2-2-2-2-5b6---------]

[---------------------------------------------------]
[---------------------------------------------------]
[---------------------------------------------------]
[-11-11-11-11-11-11-11-11-11-11-11-11-11-11-11-11---]
[-11-11-11-11-11-11-11-11-11-11-11-11-11-11-11-11---]
[-11-11-11-11-11-11-11-11-11-11-11-11-11-11-11-11---]

you   who?
[-----------------------------------------]
[-----------------------------------------]
[-----------------------------------------]
[-2-2-2-2-2-2-2-2-2-2-2-2-2-2-------------]
[-2-2-2-2-2-2-2-2-2-2-2-2-2-2-------------]
[-2-2-2-2-2-2-2-2-2-2-2-2-2-2-5b6---------]

Outro
Guitar 1
[------------------------9-----------------------------------------]
[--7-----------------------------8---------------------------------]
[------------------------------------------------------------------]
[------------------------------------------------------------------]
[------------------------------------------------------------------]
[------------------------------------------------------------------]

Guitar 2
[-9---9---9---9---9---9---9---9---9---9---9---9---9---9---9---9----]
[---7---7---7---7---7---7---7---7---8---8---8---8---8---8---8---8--]
[------------------------------------------------------------------]
[------------------------------------------------------------------]
[------------------------------------------------------------------]
[------------------------------------------------------------------]
Tap to rate this tab
# A B C D E F G H I J K L M N O P Q R S T U V W X Y Z