Guitaretab - guitar tabs
Song name
# A B C D E F G H I J K L M N O P Q R S T U V W X Y Z

Deftones - Sinatra tab

-----------------------------------------------------------------------------
                          SINATRA - Deftones
-----------------------------------------------------------------------------

Tabbed by an17nin17
Email - c.norman83@ntlworld.com

Note - This song is from the CD single "Minerva" and it is a Helmet cover.  If
you like this song CHECK HELMET OUT, they influenced Deftones and Korn and they
also have a greatest hits album out now.  

Drop D Tuning - D, A, D, G, B, E

Intro

|--------|-3-3-3-3-3-3-3-3-3-3-3-3-3-3-3-3-|
|--------|-3-3-3-3-3-3-3-3-3-3-3-3-3-3-3-3-|
|--------|-0-0-0-0-0-0-0-0-0-0-0-0-0-0-0-0-|
|-<12>~~-|-0-0-0-0-0-0-0-0-0-0-0-0-0-0-0-0-|
|-<12>~~-|---------------------------------|
|-<12>~~-|---------------------------------|
         | Play x 2

Chorus

|---------------------------------3-|
|---------------------------------3-|
|---------------------------------0-|
|-1-1-0-x-x-1-0---0-1-1-0-x-x-1-0-0-|
|-1-1-0-x-x-1-0---0-1-1-0-x-x-1-0---|
|-1-1-0-x-x-1-0---0-1-1-0-x-x-1-0---|
  Play x 4

Post - Chorus

|-3-3-3-3-3-3-3-3-3-3-3-3-3-3-3-3-|-2-2-2-2-2-2-2-2-2-2-2-2-2-2-2-2-|
|-3-3-3-3-3-3-3-3-3-3-3-3-3-3-3-3-|-2-2-2-2-2-2-2-2-2-2-2-2-2-2-2-2-|
|-0-0-0-0-0-0-0-0-0-0-0-0-0-0-0-0-|-0-0-0-0-0-0-0-0-0-0-0-0-0-0-0-0-|
|-0-0-0-0-0-0-0-0-0-0-0-0-0-0-0-0-|-0-0-0-0-0-0-0-0-0-0-0-0-0-0-0-0-|
|---------------------------------|---------------------------------|
|---------------------------------|---------------------------------|
  Play x 2                        | Play x 2

|-2-2-2-2-2-2-2-2-2-2-2-2-2-2-2-2-/18-18-18-18-18-18-18-18-18-18-18-|
|-2-2-2-2-2-2-2-2-2-2-2-2-2-2-2-2-/17-17-17-17-17-17-17-17-17-17-17-|
|-0-0-0-0-0-0-0-0-0-0-0-0-0-0-0-0--0--0--0--0--0--0--0--0--0--0--0--|
|-1-1-1-1-1-1-1-1-1-1-1-1-1-1-1-1--0--0--0--0--0--0--0--0--0--0--0--|
|-------------------------------------------------------------------|
|-------------------------------------------------------------------|

Middle 8
[ Tab from: http://www.guitaretab.com/d/deftones/130726.html ]
|-11111111-11-11111111-11-11111111-11-11111111-11-8-8-8-8--8--8-8-8-8-|
|-11111111-11-11111111-11-11111111-11-11111111-11-8-8-8-8--8--8-8-8-8-|
|-10101010-10-10101010-10-10101010-10-10101010-10-7-7-7-7--7--7-7-7-7-|
|-8-8-8-8--8--8-8-8-8--8--8-8-8-8--8--8-8-8-8--8--5-5-5-5--5--5-5-5-5-|
|-8-8-8-8--8--8-8-8-8--8--8-8-8-8--8--8-8-8-8--8--5-5-5-5--5--5-5-5-5-|
|-8-8-8-8--8--8-8-8-8--8--8-8-8-8--8--8-8-8-8--8--5-5-5-5--5--5-5-5-5-|
  Play x 3

|-8--8-8-8-8--8--8-8-8-8--8-|-3-3-3-3--3--3-3-3-3--4--4-4-4-4--4--4-4-4-4-|
|-8--8-8-8-8--8--8-8-8-8--8-|-3-3-3-3--3--3-3-3-3--4--4-4-4-4--4--4-4-4-4-|
|-7--7-7-7-7--7--7-7-7-7--7-|-2-2-2-2--2--2-2-2-2--3--3-3-3-3--3--3-3-3-3-|
|-5--5-5-5-5--5--5-5-5-5--5-|-0-0-0-0--0--0-0-0-0--1--1-1-1-1--1--1-1-1-1-|
|-5--5-5-5-5--5--5-5-5-5--5-|-0-0-0-0--0--0-0-0-0--1--1-1-1-1--1--1-1-1-1-|
|-5--5-5-5-5--5--5-5-5-5--5-|-0-0-0-0--0--0-0-0-0--1--1-1-1-1--1--1-1-1-1-|
                            | Play x 4

|-3-3-3-3-3-3-3-3-3-3-3-3-3-3-3-3-|
|-3-3-3-3-3-3-3-3-3-3-3-3-3-3-3-3-|
|-0-0-0-0-0-0-0-0-0-0-0-0-0-0-0-0-|
|-0-0-0-0-0-0-0-0-0-0-0-0-0-0-0-0-|
|---------------------------------|
|---------------------------------|
  Play x 4

|---------------------------------3-|
|---------------------------------3-|
|---------------------------------0-|
|-1-1-0-x-x-1-0---0-1-1-0-x-x-1-0-0-|
|-1-1-0-x-x-1-0---0-1-1-0-x-x-1-0---|
|-1-1-0-x-x-1-0---0-1-1-0-x-x-1-0---|
  Play x 6

|-3-3-3-3-3-3-3-3-3-3-3-3-3-3-3-3-|-2-2-2-2-2-2-2-2-2-2-2-2-2-2-2-2-|
|-3-3-3-3-3-3-3-3-3-3-3-3-3-3-3-3-|-2-2-2-2-2-2-2-2-2-2-2-2-2-2-2-2-|
|-0-0-0-0-0-0-0-0-0-0-0-0-0-0-0-0-|-0-0-0-0-0-0-0-0-0-0-0-0-0-0-0-0-|
|-0-0-0-0-0-0-0-0-0-0-0-0-0-0-0-0-|-0-0-0-0-0-0-0-0-0-0-0-0-0-0-0-0-|
|---------------------------------|---------------------------------|
|---------------------------------|---------------------------------|
  Play x 2                        | Play x 2

Outro

|-3-3-3-3-3-3-3-3-3-3-3-3-3-3-3-3-|-----|
|-3-3-3-3-3-3-3-3-3-3-3-3-3-3-3-3-|-----|
|-0-0-0-0-0-0-0-0-0-0-0-0-0-0-0-0-|-----|
|-0-0-0-0-0-0-0-0-0-0-0-0-0-0-0-0-|-0~~-|
|-5-5-5-5-5-5-5-5-5-5-5-5-5-5-5-5-|-0~~-|
|---------------------------------|-0~~-|
  Play x 6                        |

And That's It.

I've tabbed like all of Helmet's songs on Ultimate Guitar, if you look can
you rate them please?

If you have any comments about this tab or want any tabs contact me.
Related for Sinatra tab
×
Sinatra