Song name
# A B C D E F G H I J K L M N O P Q R S T U V W X Y Z

Deftones - Diamond Eyes tab

im only laying out the basic song riffs
tunning Standard B Seven-string Tune Everything to
F#,B,E,A,D,F#,B or use An 8 String Guitar
Intro and verse Riff
B |-----------------------------------|
F#|-----------------------------------|
D |-----------------------------------|
A |-----------------------------------|
E |-----------------------------------|
B |-----------------------------------|
F#|4^-44--4^-44--4^-44-4^-4^-4^-4^-44-|
      ..     ..     ..             ..
Chorus
B |----------------------------------|
F#|----------------------------------|
D |----------------------------------|
A |-----888--------------------------|
E |666--999--444-4(4)----------------|
B |666--666--444-4(4)----------------|
F#|444--777--222-2p0-----------------|
Breakdown and Ending Riff
B |--------------------------------------|
F#|--------------------------------------|
D |--------------------------------------|
A |--------------------------------------|
E |----------------------------------3p1-|
B |--------------------------------------|
F#|2p0-1p0--2p0-1p0--2p0-1p0--2p0-1p0----|
Just figure Out Where Everything Goes And You Can Play
Diamond Eyes By Deftones. And Buy The Album When It Comes
Out.
Tap to rate this tab
 
# A B C D E F G H I J K L M N O P Q R S T U V W X Y Z