Song name
# A B C D E F G H I J K L M N O P Q R S T U V W X Y Z

Deftones - Drive tab

Help us improve GuitareTab! Take a short survey!
ARTIST: Deftones
SONG: Drive (The Cars Cover)
ALBUM: Saturday Night Wrist

This is my version of the song. It sounds the same, don't worry. The acoustic guitar is
to BBGDAB. The 1st and 6th string B's are tuned to a lower pitch than the standard
tuning. You can find out the timings by listening to the song. And don't be too harsh 
commenting or rating, this is my first tab.

VERSE :-

B|-0----0----|
B|-0----0----|
G|-4----3----|
D|-4----4----|
A|-2----2----|
B|-0----0----|

CHORUS :-

B|-----------------------|
B|-----------------------|
G|-----------------------|
D|-13----6----13----6----|
A|-11----4----11----4----|
B|-9-----2----9-----2----|

Then repeat the verse part while singing "Who's gonna drive you home tonight?"

BRIDGE :-

B|----------------------|
B|----------------------|
G|----------------------|
D|-13----6----8----9----|
A|-11----4----6----7----|
B|-9-----2----4----5----|

And then go back to the verse part, while the electric guitar does a simple solo.

I'm not tabbing the bass and electric guitar parts, because I'm feeling really lazy
now. If you have any questions, or want details, or want the bass and electric guitar parts,
send me an e-mail at brucemustainehoward@gmail.com
Related for Drive tab