Song name
# A B C D E F G H I J K L M N O P Q R S T U V W X Y Z

Deftones - Diamond Eyes tab

-----------------------------------------------------------------------------
			     Diamond Eyes - Deftones
-----------------------------------------------------------------------------
Tabbed by:joel94
Email:joel94543@live.com

Tuning:F# Standard (F#,B,E,A,D,F#)
Okay I know that's a really low tuning but if you don't have an 8-string then you have 
to play it in this tuning or you can use the other ones on here in Drop A#, but I like 
the sound it with this tuning and you can use this tab if you have an 8 or 7-string

Intro/Verse

F#|------------------------------------|
D |------------------------------------|
A |------------------------------------|
E |-7/6-6----7/6-6----7/6-6----7-7-7-7-| Repeat as Necessary
B |-7/6-6----7/6-6----7/6-6----7-7-7-7-|
F#|-5/4-4----5/4-4----5/4-4----5-5-5-5-|
PM     . .      . .      . .

Chorus

I'm just putting the chords, so you can figure out the strum patterns

F#|--------------------|
D |--------------------|
A |----11---11/10-10/9-|
E |-6--11---11/10-10/9-|
B |-6---9----9/-8--8/7-|
F#|-4------------------|

Breakdown


F#|----------------------------------------------|
D |----------------------------------------------|
A |----------------------------------------------|
E |----------------------------------------------|
B |------------------------------------------7/6-| <--You can play the
F#|-2/1-1p0----2/1-1p0----2/1-1p0----2/1-1p0-----|     octaves here too
Tap to rate this tab
# A B C D E F G H I J K L M N O P Q R S T U V W X Y Z