Song name
# A B C D E F G H I J K L M N O P Q R S T U V W X Y Z

Deftones - Be Quiet & Drive tab

e: Fri, 20 Feb 1998 12:07:53 -0800
From: JRBOY@swbell.net
To: GUITAR@OLGA.NET
Subject: TAB: "BE QUIET AND DRIVE (FAR AWAY)" BY "DEFTONES"

BE QUIET AND DRIVE BY DEFTONES
FROM THE ALBUM "AROUND THE FUR"
TRANSCRIBED BY MIKE EVANS
SUBMITTED BY BROCK LAVOIE


DROP D TUNING


INTRO:

E-4--4--4--4--9--9--9--9
B-2--2--2--2--7--7--7--7
G-2--2--2--2--7--7--7--7   X4
D-2--2--2--2--7--7--7--7
A-----------------------
D-----------------------


VERSE:
E-----------------------------------------------------
B-----------------------------------------------------
G-11-X-X-11-X-11-11-X-11-11--11-X-X-11-X-11-11-X-11-11
D----X-X----X-------X-----------X-X----X-------X------
A-9--X-X-9--X-9--9--X-9--9---9--X-X-9--X-9--9--X-9--9-
D----X-X----X-------X--------9--X-X-9--X-9--9--X-9--9-



CHORUS:

SAME RIFF AS ABOVE BUT BEND THE CHORDS A HALF-STEP


BEFORE THE LAST GROUP OF CHORUSES:
E---------------------------------------------------------
B---------------------------------------------------------
G-11-11-X-X-11-11-11-X-X-11-11-11-X-X-11-12-12-12-13-13-13
D-------X-X----------X-X----------X-X---------------------
A-9--9--X-X-9--9--9--X-X-9--9--9--X-X-9--10-10-10-11-11-11
D-9--9--X-X-9--9--9--X-X-9--9--9--X-X-9--10-10-10-11-11-11


LYRICS:
THIS TOWN DON'T FEEL MINE
I'M FAST TO GET AWAY

FAR

I DRESS YOU IN HER CLOTHES
NOW DRIVE ME FAR AWAY

IT FEELS GOOD TO KNOW YOU'RE ALL MINE
NOW DRIVE ME FAR AWAY

FAR, I DON'T CARE WHERE JUST FAR
Tap to rate this tab
# A B C D E F G H I J K L M N O P Q R S T U V W X Y Z