Song name
# A B C D E F G H I J K L M N O P Q R S T U V W X Y Z

Deftones - Elite tab

Help us improve GuitareTab! Take a short survey!
Deftones - Elite
From "White Pony" album
Song length - 4:01
Tuning - Drop C
tabbed by blindfold

(0:01 - 0:21)
D|------------------------------------------------------------|
A|------------------------------------------------------------|
F|---------------------------------------------------5-5---10-|
C|-0-2-0-2-3-2-0-2-0-2-0-2-3-2-0-2-0-2-0-2-3-2-0-2-0-3-3-0-8--|
G|-0-2-0-2-3-2-0-2-0-2-0-2-3-2-0-2-0-2-0-2-3-2-0-2-0-3-3-0-8--|
C|-0-2-0-2---2-0-2-0-2-0-2---2-0-2-0-2-0-2---2-0-2-0-3-3-0-8--|

(0:21 - 0:27)
D|---------0-|
A|---------0-|
F|---------0-|
C|-0-2-0-2-3-|
G|-0-2-0-2-0-|
C|-0-2-0-2---|

(0:27 - 0:48)
D|-------------------------------------------------------------|
A|-------------------------------------------------------------|
F|-------------------------------------------------------------|
C|-------------------------------------------------------------|
G|---------3---------------3---------------3-------------------|
C|-0-2-0-2---2-0-2-0-2-0-2---2-0-2-0-2-0-2---2-0-2-0-3-3-0-8-8-|

D|------------------------------------------------------------|
A|------------------------------------------------------------|
F|------------------------------------------------------------|
C|------------------------------------------------------------|
G|---------3---------------3---------------3------------------|
C|-0-2-0-2---2-0-2-0-2-0-2---2-0-2-0-2-0-2---2-0-2-0-3/-0-8\--|

(0:48 - 0:59)
D|------------------------------------------------------------|
A|------------------------------------------------------------|
F|---------------------------------------------------5-5---10-|
C|-0-2-0-2-3-2-0-2-0-2-0-2-3-2-0-2-0-2-0-2-3-2-0-2-0-3-3-0-8--|
G|-0-2-0-2-3-2-0-2-0-2-0-2-3-2-0-2-0-2-0-2-3-2-0-2-0-3-3-0-8--|
C|-0-2-0-2---2-0-2-0-2-0-2---2-0-2-0-2-0-2---2-0-2-0-3-3-0-8--|

(0:59 - 1:19)
D|-----------------------0---------0-|
A|-----------------------0---------0-|
F|-8-8-8-8-8-8-8---------0---------0-|
C|-5-5-5-5-5-5-5-0-2-0-2-3-0-2-0-2-3-|
G|-5-5-5-5-5-5-5-0-2-0-2-0-0-2-0-2-0-|
C|-5-5-5-5-5-5-5-0-2-0-2---0-2-0-2---|

(1:19 - 1:22)
D|---------0-|
A|---------0-|
F|---------0-|
C|-0-2-0-2-3-|
G|-0-2-0-2-0-|
C|-0-2-0-2---|

(1:22 - 1:43)
D|------------------------------------------------------------|
A|------------------------------------------------------------|
F|------------------------------------------------------------|
C|------------------------------------------------------------|
G|---------3---------------3---------------3------------------|
C|-0-2-0-2---2-0-2-0-2-0-2---2-0-2-0-2-0-2---2-0-2-0-3/-0-8\--|

1:44
D|---|
A|---|
F|-4-|
C|-2-|
G|-2-|
C|-2-|

(1:47 - 2:07)
D|------------------------------------------------------------|
A|------------------------------------------------------------|
F|---------------------------------------------------5-5---10-|
C|-0-2-0-2-3-2-0-2-0-2-0-2-3-2-0-2-0-2-0-2-3-2-0-2-0-3-3-0-8--|
G|-0-2-0-2-3-2-0-2-0-2-0-2-3-2-0-2-0-2-0-2-3-2-0-2-0-3-3-0-8--|
C|-0-2-0-2---2-0-2-0-2-0-2---2-0-2-0-2-0-2---2-0-2-0-3-3-0-8--|

(2:07 - 2:28)
D|-----------------------0---------0-|
A|-----------------------0---------0-|
F|-8-8-8-8-8-8-8---------0---------0-|
C|-5-5-5-5-5-5-5-0-2-0-2-3-0-2-0-2-3-|
G|-5-5-5-5-5-5-5-0-2-0-2-0-0-2-0-2-0-|
C|-5-5-5-5-5-5-5-0-2-0-2---0-2-0-2---|

(2:28 - 2:31)
D|---------0-|
A|---------0-|
F|---------0-|
C|-0-2-0-2-3-|
G|-0-2-0-2-0-|
C|-0-2-0-2---|

(2:31 - 2:41)
D|-------------------------------------------------|
A|-------------------------------------------------|
F|-------------------------------------------------|
C|-------------------------------------------------|
G|---------3---------------3---------------3-------|
C|-0-2-0-2---2-0-2-0-2-0-2---2-0-2-0-2-0-2---2-0-2-|
pm . . . . . . . . . . . . . . . . . . . . . . . .

2:42
D|---|
A|---|
F|-4-|
C|-2-|
G|-2-|
C|-2-|

(2:47 - 3:08)
D|---------0-|
A|---------0-|
F|---------0-|
C|-0-2-0-2-3-|
G|-0-2-0-2-0-|
C|-0-2-0-2---|

(3:08 - 3:29)
D|-----------------------0---------0-|
A|-----------------------0---------0-|
F|-8-8-8-8-8-8-8---------0---------0-|
C|-5-5-5-5-5-5-5-0-2-0-2-3-0-2-0-2-3-|
G|-5-5-5-5-5-5-5-0-2-0-2-0-0-2-0-2-0-|
C|-5-5-5-5-5-5-5-0-2-0-2---0-2-0-2---|

(3:29 - 3:47)
D|---------0-|
A|---------0-|
F|---------0-|
C|-0-2-0-2-3-|
G|-0-2-0-2-0-|
C|-0-2-0-2---|

(3:47 - 3:51)
D|-------------------------------------------------|
A|-------------------------------------------------|
F|-------------------------------------------------|
C|-------------------------------------------------|
G|---------3---------------3---------------3-------|
C|-0-2-0-2---2-0-2-0-2-0-2---2-0-2-0-2-0-2---2-0-2-|

(3:52 - 4:01)
D|---------------------------------------------------------|
A|---------------------------------------------------------|
F|---------------------------------------------------------|
C|-8\--------------------------------------------------x-x-|
G|-8\----------3---------------3---------------3-------x-x-|
C|-8\--0-2-0-2---2-0-2-0-2-0-2---2-0-2-0-2-0-2---2-0-2-x-x-|
Related for Elite tab