Song name
# A B C D E F G H I J K L M N O P Q R S T U V W X Y Z

Deftones - Needles And Pins tab

Tabbed by Devin Davis
This is an awesome song from the Deftones S/T album.
Stef plays it with a 7 string. But i tabbed it for a pretty simple tuned 6 string guitar 
people who dont have a 7 string and dont feel like tuning down a lot.  It sounds pretty 
to me.
Its tuned a half step down drop d......or C sharp Drop D.
Hope you guys like it.

Verse
|---------------------------------------|
|---------------------------------------|
|---------------------------------------|
|---4------4-----4-----4-----4-----4----| Repeat a lot
|------2-----2-----2-----2-----2-----2--|
|-5------5-----5-----5-----5-----5------|
  .      .     .     .     .     .

Chorus
|----------------------------------|
|----------------------------------|
|----------------------------------|
|-4-4-4-4-0-0-0-0-5-5-5-5-5-5-5-5--| x 4
|-4-4-4-4-0-0-0-0-5-5-5-5-5-5-5-5--|
|-4-4-4-4-0-0-0-0-5-5-5-5-5-5-5-5--|


Bridge
|---------------------------------------------------|
|---------------------------------------------------|
|---------------------------------------------------|
|----4----4---4---4-4--------4----4----4---4-4------| x4
|----2----2---2-------2------2----2----2-------2----|
|-5-----5---5-----------5-5-----5----5-----------5--|
  .     .   .           . .     .    .           .

If you have any questions please E-mail me at Crayola_22_88@yahoo.com
Tap to rate this tab
# A B C D E F G H I J K L M N O P Q R S T U V W X Y Z