Song name
# A B C D E F G H I J K L M N O P Q R S T U V W X Y Z

Deicide - Serpents Of The Light tab

DECIDE - SERPENTS OF THE LIGHT (SOLO)

*play this part slow
|-----------------11-12-14-15-17-18-20-21-20-18-17-15-14-12-11---------------------|
|------------11-12--------------------------------------------12-11----------------|
|-------11-12------------------------------------------------------12-11-----------|
|-/12-13----------------------------------------------------------------13-12------|
|----------------------------------------------------------------------------13-12-|
|----------------------------------------------------------------------------------|

|--------------------------------------------------------------------------------|
|--------------------------------------------------------------------------------|
|----------------------------------------14-12-11-14-12-11-171717171717-14-12-11-|
|-14-12-11-14-12-11-171717171717-14-12-11----------------------------------------|
|--------------------------------------------------------------------------------|
|--------------------------------------------------------------------------------|

Then it sounds like you play some frett tapping last,
but i haven't tried to figure it out yet.

I've only heard a the live version of the song, and it was very
bad quality so it might not be exactly right...
but i think this just about it.

e-mail me and tell me what you think on: executed@hotmail.com

-Andy.R
Tap to rate this tab
# A B C D E F G H I J K L M N O P Q R S T U V W X Y Z