Song name
# A B C D E F G H I J K L M N O P Q R S T U V W X Y Z

Deke Dickerson - Broken Heart tab

hello, here's a good song from my buddy Deke


            "BROKEN HEART" by Deke Dickerson @ the Ecco-Fonics

|---3b-0----------------|--3b-0--------------|
|---------3-0-----------|--------3-0---------|
|-------------2p0-------|------------2p0-----|
|------------------2----|-----------------2--|
|-----------------------|--------------------|
|---------------------0-|--------------------|

|--------3-5--5--3---5~~~-|----3-5--5--3---5--3-|
|-----/5-----------5------|-/5-----------5------|
|-------------------------|---------------------|
|-------------------------|---------------------|
|---0---------------------|---------------------|
|-------------------------|---------------------|

|--0----0----0---|----7-10-10--|----5---5------|
|--4b---4b---4b--|------9--9---|------5---5----|
|----------------|-------------|------------5--|
|----------------|-------------|---------------|
|----------------|-------------|---------------|
|----------------|-/7----------|-/5------------|


|---3b-0----------------|--3b-0--------------|
|---------3-0-----------|--------3-0---------|
|-------------2p0-------|------------2p0-----|
|------------------2----|-----------------2--|
|-----------------------|--------------------|
|---------------------0-|--------------------|

 would  you  leave  if  i  cried?
|-------------------------------------|
|-------------------------------------|
|-------------------------------------|
|-------------------------------------|
|-------------------------------------|
|-00-33-00-33-00-33-00-33-00-33-00-33-|

i  am  sorry  i told you  a lie
|-------------------------------------|
|-------------------------------------|
|-------------------------------------|
|-------------------------------------|
|-------------------------------------|
|-00-33-00-33-00-33-00-33-00-33-00-33-|

for if you'd ever leave me
|-------------------------------------|
|-------------------------------------|
|-------------------------------------|
|-------------------------------------|
|-00-33-00-33-00-33-00-33-00-33-00-33-|
|-------------------------------------|

i'd be left alone to die
|-------------------------------------|
|-------------------------------------|
|-------------------------------------|
|-------------------------------------|
|-------------------------------------|
|-00-33-00-33-00-33-00-33-00-33-00-33-|

broken  heart      
|-------------------------------------------------|
|-------------------------------------------------|
|-------------------------------------------------|
|-------------------------------------------------|
|-22-55-22-55-22-55-22-55-00-33-00-33-00-33-00-33-|
|-------------------------------------------------|

in so many parts, oh my love
|-------------------------------------|
|-------------------------------------|
|-------------------------------------|
|-------------------------------------|
|-------------------------------------|
|-00-33-00-33-00-33-00-33-00-33-00-33-|


|---3b-0----------------|--3b-0--------------|
|---------3-0-----------|--------3-0---------|
|-------------2p0-------|------------2p0-----|
|------------------2----|-----------------2--|
|-----------------------|--------------------|
|---------------------0-|--------------------|

|--------3-5--5--3---5~~~-|----3-5--5--3---5--3-|
|-----/5-----------5------|-/5-----------5------|
|-------------------------|---------------------|
|-------------------------|---------------------|
|---0---------------------|---------------------|
|-------------------------|---------------------|

|--0----0----0---|----7-10-10--|----5---5------|
|--4b---4b---4b--|------9--9---|------5---5----|
|----------------|-------------|------------5--|
|----------------|-------------|---------------|
|----------------|-------------|---------------|
|----------------|-/7----------|-/5------------|


|---3b-0----------------|--3b-0--------------|
|---------3-0-----------|--------3-0---------|
|-------------2p0-------|------------2p0-----|
|------------------2----|-----------------2--|
|-----------------------|--------------------|
|---------------------0-|--------------------|

and thats the whole song really just do the other verses with whats here
and finish with:

|---0~~~-|
|---0~~~-|
|---0~~~-|
|---2~~~-|
|---2~~~-|
|---0~~~-|

and thats all! yay!

-Bert "the Toast"
Tap to rate this tab
# A B C D E F G H I J K L M N O P Q R S T U V W X Y Z