Delirious - Solid Rock tab

Standard Tuning (EADGBe)

| ~  vibrato
| h  hammer-on
| p  pull-off
| /  up-slide
| \  down-slide
| b  bend
| .  palm mute (p.m)

This song has a lot tricks to it, so I put some notes in with the tab to help you to 
how to play it and have it sound right. As a rule, try to keep your pull-offs nice and 
buzzing open strings.


[Intro] Played through most of the song. NOTE: Here, it's very important [1] to remember 
include the vibrato and [2] to quickly squeeze the last 0 on the E string in between 
5 on the A string and the 3 on the E string. The idea isn't to let it ring; play it and move on.

              [1]         [2]
e|------------------------------|
B|------------------------------|
G|------------------------------|
D|------------------------------|
A|-----7---5--7~-----7---5------|
E|--0----7--------0----7---0-3--|


[Verse]
e|---------------------------------------------------|
B|---------------------------------------------------|
G|--12-12-12-12-12-12-12-12-11-11-11-11-11-11-11-11--|
D|--14-14-14-14-14-14-14-14-12-12-12-12-12-12-12-12--|
A|---------------------------------------------------|
E|---------------------------------------------------|

e|---------------------------------------------------|
B|---------------------------------------------------|
G|--6-6-6-6-6-6-6-6-6-6-6-6-5-5-5-5-5-5-5-5-5-5-5-5--|
D|--7-7-7-7-7-7-7-7-7-7-7-7-7-7-7-7-7-7-7-7-7-7-7-7--|
A|---------------------------------------------------|
E|---------------------------------------------------|


[Pre-Chorus]
e|---------------------------------------------------|
B|---------------------------------------------------|
G|--12-12-12-12-12-12-12-12-14-14-14-14-14-14-14-14--|
D|--14-14-14-14-14-14-14-14-16-16-16-16-16-16-16-16--|
A|---------------------------------------------------|
E|---------------------------------------------------|

e|---------------------------------------------------|
B|---------------------------------------------------|
G|--16-16-16-16-16-16-16-16-18-18-18-18-18-18-18-18--|
D|--17-17-17-17-17-17-17-17-19-19-19-19-19-19-19-19--|
A|---------------------------------------------------|
E|---------------------------------------------------|

[Chorus] Sounds like the guitarist strums it once and then lets it ring with a tad bit 
delay, but regular strumming sounds fine too.

   On Christ the solid rock we will stand,
e|-----------------------------------------|
B|----9-----------------------------10-----|
G|----9-----------------------------9------|
D|----9-----------------------------7------|
A|----7-----------------------------7------|
E|-----------------------------------------|

   All other ground is sinking sand...
e|-----------------------------------|
B|--7------------------10------------|
G|--7------------------9-------------|
D|--7------------------7-------------|
A|--5------------------7-------------|
E|-----------------------------------|


[Bridge]  Lots of improvisation. Here's the tab. Feel it out!

Notes:
[1] When you bend the 7 on the D string, be sure to bring it back from the bend
[2] Let up lightly right after the first 3 on the E string to cut off the note, then let 
second one ring right before the open E

          [1]        [2]
e|---------------------------|
B|---------------------------|
G|--7\-----------------------|
D|--7\-----7b----------------|
A|---------------------------|
E|------------------0h3-3-0--|
    .. p.m ..

e|--12------5/7---------------5/7-------------------------|
B|-----10p0-----8~----10-10p0-----8p5-8-5~--0-8p5-5p3-5~--|
G|--------------------------------------------------------|
D|--------------------------------------------------------|
A|--------------------------------------------------------|
E|--------------------------------------------------------|


e|--7-10-7-10--7-10--7-10-7-10-7/9-5----------------------------------|
B|------------------------------------5-3--3p0-1/2--------------------|
G|-------------------------------------------------2-0----------------|
D|-----------------------------------------------------4-2------------|
A|---------------------------------------------------------5p2-5/7~---|
E|--------------------------------------------------------------------|
    ....................  lightly palm muted  .....................

e|--12-12-10/12-12--|
B|------------------|
G|------------------|
D|------------------|
A|------------------|
E|------------------|

e|--7-10-----------------------------------------------------------|
B|-------------------------------3-3-3p0----------3-3p0-3p0--------|
G|---------------------------2-4---------4p2--2-4-----------4p2-2--|
D|-----------------------2-5---------------------------------------|
A|-------5h7-5p2-7---2-5-------------------------------------------|
E|---------------0-5-----------------------------------------------|
    .pm.
Tap to rate this tab
 
# A B C D E F G H I J K L M N O P Q R S T U V W X Y Z