Song name
# A B C D E F G H I J K L M N O P Q R S T U V W X Y Z

Demon Hunter - Gauntlet tab

Band- Demon Hunter
Song- The Gauntlet

Tuning: Dropped C

RIFF A
|-----------------------------------------------------|
|-----------------------------------------------------|
|-----------------------------------------------------|
|-9-9-9---9-9-9---9-9-9---9-9-9-----------------------|
|-7-7-7---8-8-8---8-8-8---8-8-8-----------------------|
|-7-7-7---7-7-7---0-0-0---0-0-0-----------------------|

RIFF B - 1:39 “It’s so beautiful to me...”
|----------------------------------------------------------------|
|----------------------------------------------------------------|
|----------------------------------------------------------------|
|-3-3-3-3---3-3-3-3---2-2-2-2---2-2-2-2--------------------------|
|-3-3-3-3---3-3-3-3---2-2-2-2---2-2-2-2--------------------------|
|-3-3-3-3---3-3-3-3---2-2-2-2---2-2-2-2--------------------------|

RIFF C - 3:36 “Not a finger...”
|---------------------------------------------------------|
|---------------------------------------------------------|
|---------------------------------------------------------|
|-----9-------9-------9-------9---------------------------|
|---7-------8-------8-------8-----------------------------|
|-7-------7-------0-------0-------------------------------|
						repeat until the end...
Tap to rate this tab
 
# A B C D E F G H I J K L M N O P Q R S T U V W X Y Z