Song name
# A B C D E F G H I J K L M N O P Q R S T U V W X Y Z

Demons And Wizards - Blood On My Hands tab

#----------------------------------PLEASE NOTE---------------------------------#
#This file is the author's own work and represents their interpretation of the #
#song. You may only use this file for private study, scholarship, or research. #
#------------------------------------------------------------------------------#

BLOOD ON MY HANDS
As recorded by Demons & Wizards
(From the 1999 Album DEMONS & WIZARDS)

Transcribed by James C
	

Words by Hansi Kürsch Music by Jon Schaffer

Gtr I (Eb Ab Db Gb Bb Eb) - 'Untitled'
Gtr II (Eb Ab Db Gb Bb Eb) - 'Untitled'
Gtr III (Eb Ab Db Gb Bb Eb) - 'Untitled'

   Intro
    Q=180
    E5                                   G5    D5
   4/4
    Gtr I
    W                      +H            Q     Q
||-----------------------|---------------------------|
||o----------------------|---------------------------|
||-----------------------|---------------7-----------|
||--9--------------------|-(9)-----------5-----7-----|
||o-7--------------------|-(7)-----------------5-----|
||-----------------------|---------------------------|
|
|   Gtr III
|   PM------------------------------------------------
|   Q  E S S E S S E S S    E  S S E S S E S S E S S
||-----------------------|---------------------------|
||o----------------------|---------------------------|
||-----------------------|---------------------------|
||-----------------------|---------------------------|
||o----------------------|---------------------------|
||--0--0-0-0-0-0-0-0-0-0-|--0--0-0-0-0-0-0-0-0-0-0-0-|


  +W
|-----------------------------|
|-----------------------------|
|-----------------------------|
|-(7)-------------------------|
|-(5)-------------------------|
|-----------------------------|
|
|-------------------------|
|  E  S S E S S E S S E S S
|-----------------------------|
|-----------------------------|
|-----------------------------|
|-----------------------------|
|-----------------------------|
|--0--0-0-0-0-0-0-0-0-0-0-0---|


  D5      E5    C5                          G/B
  +Q      Q     H             +H            H
|---------------------------|---------------------------|
|---------------------------|---------------------------|
|---------4-----------------|---------------------------|
|-(7)-----2-----5-----------|-(5)-----------5-----------|
|-(5)-----------3-----------|-(3)-----------2-----------|
|---------------------------|---------------------------|
|
|  PM----------------------------------------------------
|  E  S S E S S E S S E S S    E  S S E S S E S S E S S
|---------------------------|---------------------------|
|---------------------------|---------------------------|
|---------------------------|---------------------------|
|---------------------------|---------------------------|
|---------------------------|---------------------------|
|--0--0-0-0-0-0-0-0-0-0-0-0-|--0--0-0-0-0-0-0-0-0-0-0-0-|


                                    1.
                E5
 5/4
  +H            H.                   +W                        +Q
|----------------------------------|------------------------------------||
|----------------------------------|-----------------------------------o||
|----------------------------------|------------------------------------||
|-(5)------------------------------|------------------------------------||
|-(2)-----------2------------------|-(2)-----------------------(2)-----o||
|---------------0------------------|-(0)-----------------------(0)------||
|
|--------------------------------------------------------------------|
|  E  S S E S S E  S S E S S E S S    E  S S E S S E S S E S S  E  S S
|----------------------------------|------------------------------------||
|----------------------------------|-----------------------------------o||
|----------------------------------|------------------------------------||
|----------------------------------|------------------------------------||
|----------------------------------|-----------------------------------o||
|--0--0-0-0-0-0-0--0-0-0-0-0-0-0-0-|--0--0-0-0-0-0-0-0-0-0-0-0--0--0-0--||


  2.
  N.C.                         E5
 4/4
   PM-----------------------|
   E     E  E  E  E      E   E  E
|-------------------------------------||
|-------------------------------------||
|-------------------------------------||
|-------------------------------------||
|-------------------------------2-----||
|--0-----3--2--0--3------2---3--0-----||
|
|  E     E  E  E  E     +E   E  E
|-17b19-17-15-14-15b17r(15)-14-12-----||
|------------------------------15b17==||
|-------------------------------------||
|-------------------------------------||
|-------------------------------------||
|-------------------------------------||
|
| Gtr II
|  W
|-------------------------------------||
|-------------------------------------||
|-------------------------------------||
|-------------------------------------||
|-------------------------------------||
|-------------------------------------||


 Verse
              E5       N.C.                 E5
        PM--|    PM-----------------------|
   +Q   S S E Q  E E     E  E E E  E    E E E
|--------------------|------------------------|
|--------------------|------------------------|
|--------------------|------------------------|
|-------------9------|------------------------|
|--(2)--------7------|----------------------2-|
|--(0)--0-0-0-0--0-0-|---0--3-2-0--3----2-3-0-|
|
|   ~~~~~~~~~~~~~~~~~~~~~~~~
|  +W                   +H         H
|-(12)---------------|-(12)-------12----------|
|-(15)---------------|-(15)-------15b17-------|
|--------------------|------------------------|
|--------------------|------------------------|
|--------------------|------------------------|
|--------------------|------------------------|
|
|   W                    H         H
|--------------------|------------------------|
|--------------------|------------------------|
|--------------------|-------------9----------|
|--------------------|------------------------|
|--------------------|------------------------|
|--------------------|------------------------|


                         H=H
                E5       N.C.                 C
          PM--|    PM-----------------------|
  +Q      S S E Q  E E     E  E E E  E    E E E
|----------------------|------------------------|
|----------------------|------------------------|
|----------------------|------------------------|
|---------------9------|----------------------2-|
|-(2)-----------7------|----------------------3-|
|-(0)-----0-0-0-0--0-0-|---0--3-2-0--3----2-3---|
|
|  ~~~~~~~~~~~~~~~~~~~~~~~~~~~
|  W                      +H         H
|-14-------------------|-(14)-------14----------|
|-17b19================|=(17)-------17b19-------|
|----------------------|------------------------|
|----------------------|------------------------|
|----------------------|------------------------|
|----------------------|------------------------|
|
|  ~~~~~~~~~~~~~~~~~~~~~~~~~~~
|  W                      +H         H
|----------------------|------------------------|
|----------------------|------------------------|
|-11-------------------|-(11)-------11----------|
|----------------------|------------------------|
|----------------------|------------------------|
|----------------------|------------------------|


                    D                        E5
           PM--|                    PM--|
  +H       E E   E   E       +H     E E   E   E
|-------------------------|-------------------------|
|-------------------------|-------------------------|
|-------------------------|-------------------------|
|-(2)----------------4----|--(4)--------------------|
|-(3)------3-2---3---5----|--(5)--------------2-----|
|-------------------------|---------3-2---3---0-----|
|
|  ~~~~~~~~~~~~~~~~~~~~~~~~~~~~~~~~~~~~~~~~~~~~~~~~~
|  H.           +E   E       +H.         +E   E
|-15-----------(15)-17----|-(17)--------(17)-19-----|
|-18b20--------(18)-20b22-|-(20)--------(20)-22b24==|
|-------------------------|-------------------------|
|-------------------------|-------------------------|
|-------------------------|-------------------------|
|-------------------------|-------------------------|
|
|  ~~~~~~~~~~~~~~~~~~~~~~~~~~~~~~~~~~~~~~~~~~~~~~~~~
|  H.           +E   E       +H.         +E   E
|-------------------------|-------------------------|
|-------------------------|-------------------------|
|--9------------(9)--7----|--(7)---------(7)--------|
|-------------------------|-------------------9-----|
|-------------------------|-------------------------|
|-------------------------|-------------------------|


                                          F
              E5       N.C.             E5
        PM--|    PM-------------------|
    Q   S S E Q  E E     E  E E E E E E E
|--------------------|--------------------|
|--------------------|--------------------|
|--------------------|--------------------|
|-------------9------|--------------------|
|---2---------7------|------------------2-|
|---0---0-0-0-0--0-0-|---0--3-2-0-3-2-3-0-|
|
|                        >
|   ~~~~~~~~~~~~~~~~~~~~~~~~
|  +W                   +W
|-(19)---------------|-(19)---------------|
|-(22)---------------|-(22)---------------|
|--------------------|--------------------|
|--------------------|--------------------|
|--------------------|--------------------|
|--------------------|--------------------|
|
|                        >
|   ~~~~~~~~~~~~~~~~~~~~~~~~
|  +W                   +W
|--------------------|--------------------|
|--------------------|--------------------|
|--------------------|--------------------|
|--(9)---------------|--(9)---------------|
|--------------------|--------------------|
|--------------------|--------------------|


 aster Q=192
             E5       N.C.          E5
       PM--|    PM----------------|
  +Q   S S E Q  E E   E E E E E E E E
|-------------------|-------------------|
|-------------------|-------------------|
|-------------------|-------------------|
|------------9------|-------------------|
|-(2)--------7------|---------------2---|
|-(0)--0-0-0-0--0-0-|-0-3-2-0-3-2-3-0---|
|
|  W                  W
|-------------------|-------------------|
|-------------------|-------------------|
|-------------------|-------------------|
|-------------------|-------------------|
|-------------------|-------------------|
|-------------------|-------------------|
|
|  W                  W
|-------------------|-------------------|
|-------------------|-------------------|
|-------------------|-------------------|
|-------------------|-------------------|
|-------------------|-------------------|
|-------------------|-------------------|


             E5       N.C.          C                D                E5
       PM--|    PM----------------|            PM--|            PM--|
  +Q   S S E Q  E E   E E E E E E E E   +H     E E E E   +H     E E E E
|-------------------|-----------------|----------------|----------------|
|-------------------|-----------------|----------------|----------------|
|-------------------|-----------------|----------------|----------------|
|------------9------|---------------2-|-(2)----------4-|-(4)------------|
|-(2)--------7------|---------------3-|-(3)----3-2-3-5-|-(5)----------2-|
|-(0)--0-0-0-0--0-0-|-0-3-2-0-3-2-3---|----------------|--------3-2-3-0-|


                                      $
             E5       N.C.          E5                   DsusC/E E5C/EE5D5
       PM--|    PM----------------|                PM|
  +Q   S S E Q  E E   E E E E E E E E     +H.      E E    Q   Q  E  E E E
|-------------------|-----------------||---------------|------------------|
|-------------------|-----------------||o--------------|------------------|
|-------------------|-----------------||---------------|------------------|
|------------9------|---------------9-||--(9)----------|-12--10--9-10-9-7-|
|-(2)--------7------|---------------7-||o-(7)------7-7-|--7---7--7--7-7-5-|
|-(0)--0-0-0-0--0-0-|-0-3-2-0-3-2-3---||---------------|------------------|


                 Bm/D5 G5D5G5C5               G/B              E5
           PM|                          PM--|            PM--|
  +H.      E E   Q  Q  E E E E   +H     E E E E   +H     E E E E
|--------------|---------------|----------------|----------------|
|--------------|---------------|----------------|----------------|
|--------------|---------------|----------------|----------------|
|-(7)----------|-9--7--5-7-5-5-|-(5)----------5-|-(5)------------|
|-(5)------5-5-|-5--5--5-5-5-3-|-(3)----3-2-3-2-|-(2)----------2-|
|--------------|---------------|----------------|--------3-2-3-0-|


             E5       N.C.          E5
       PM--|    PM----------------|
  +Q   S S E Q  E E   E E E E E E E E
|-------------------|------------------||
|-------------------|-----------------o||
|-------------------|------------------||
|------------9------|---------------9--||
|-(2)--------7------|---------------7-o||
|-(0)--0-0-0-0--0-0-|-0-3-2-0-3-2-3----||
|
| Gtr III
|  W                  W
|-------------------|------------------||
|-------------------|-----------------o||
|-------------------|------------------||
|-------------------|------------------||
|-------------------|-----------------o||
|-------------------|------------------||


     Pre-Chorus
                                    C
      +W             +H.        +E  E
|-||---------------|--------------------|
|-||o--------------|--------------------|
|-||---------------|--------------------|
|-||--(9)----------|-(9)--------(9)-2---|
|-||o-(7)----------|-(7)--------(7)-3---|
|-||---------------|--------------------|
|
|      H.      E E   +Q   H.
|-||-------------0-|-(0)----------------|
|-||o--------------|--------------------|
|-||---------------|------4-------------|
|-||---------------|--------------------|
|-||o--------------|--------------------|
|-||---------------|--------------------|


                                D5                                G5
  +W             +H.        +E  E   +W             +H.        +E  E
|--------------|------------------|--------------|------------------|
|--------------|------------------|--------------|------------------|
|--------------|------------------|--------------|------------------|
|-(2)----------|-(2)--------(2)-7-|-(7)----------|-(7)--------(7)---|
|-(3)----------|-(3)--------(3)-5-|-(5)----------|-(5)--------(5)-5-|
|--------------|------------------|--------------|----------------3-|
|
|  H.      E E   +Q   H.             H.      E E   +Q   H.
|------------0-|-(0)--------------|------------0-|-(0)--------------|
|--------------|------------------|--------------|------------------|
|--------------|------4-----------|--------------|------4-----------|
|--------------|------------------|--------------|------------------|
|--------------|------------------|--------------|------------------|
|--------------|------------------|--------------|------------------|


                                Q=180
             A5         G5A5  E5
           PM
  +H.      E E   +H     E E E E
|--------------|-----------------||-|
|--------------|----------------o||-|
|--------------|-----------------||-|
|--------------|--------------9--||-|
|-(5)--------7-|-(7)----5-7---7-o||-|
|-(3)------3-5-|-(5)----3-5------||-|
|
|  W              W
|--------------|-----------------||-|
|--------------|----------------o||-|
|--------------|-----------------||-|
|--------------|-----------------||-|
|--------------|----------------o||-|
|--------------|-----------------||-|


   Chorus
                                              G5    D5
    +W                          +H            Q     Q
||----------------------------|---------------------------|
||o---------------------------|---------------------------|
||----------------------------|---------------7-----------|
||--(9)-----------------------|-(9)-----------5-----7-----|
||o-(7)-----------------------|-(7)-----------------5-----|
||----------------------------|---------------------------|
|
|    PM-------------------------------------------------|
|    E  S S E S S E S S E S S    E  S S E S S E S S E S S
||----------------------------|---------------------------|
||o---------------------------|---------------------------|
||----------------------------|---------------------------|
||----------------------------|---------------------------|
||o---------------------------|---------------------------|
||---0--0-0-0-0-0-0-0-0-0-0-0-|--0--0-0-0-0-0-0-0-0-0-0-0-|


                                      E5    C5
  +W                          +Q      Q     H
|---------------------------|---------------------------|
|---------------------------|---------------------------|
|---------------------------|---------4-----------------|
|-(7)-----------------------|-(7)-----2-----5-----------|
|-(5)-----------------------|-(5)-----------3-----------|
|---------------------------|---------------------------|
|
|  PM----------------------------------------------------
|  E  S S E S S E S S E S S    E  S S E S S E S S E S S
|---------------------------|---------------------------|
|---------------------------|---------------------------|
|---------------------------|---------------------------|
|---------------------------|---------------------------|
|---------------------------|---------------------------|
|--0--0-0-0-0-0-0-0-0-0-0-0-|--0--0-0-0-0-0-0-0-0-0-0-0-|


                G/B
  +H            H
|----------------------------|
|----------------------------|
|----------------------------|
|-(5)-----------5------------|
|-(3)-----------2------------|
|----------------------------|
|
|-------------------------|
|  E  S S E S S E S S E S S
|----------------------------|
|----------------------------|
|----------------------------|
|----------------------------|
|----------------------------|
|--0--0-0-0-0-0-0-0-0-0-0-0--|


                E5
 5/4
  +H            H.
|----------------------------------|
|----------------------------------|
|----------------------------------|
|-(5)------------------------------|
|-(2)-----------2------------------|
|---------------0------------------|
|
|  PM-------------------------------
|  E  S S E S S E  S S E S S E S S
|----------------------------------|
|----------------------------------|
|----------------------------------|
|----------------------------------|
|----------------------------------|
|--0--0-0-0-0-0-0--0-0-0-0-0-0-0-0-|


 1.                          2.
          N.C.          E5    E5      N.C.          E5
          PM----------|               PM----------|
  +Q      E E E E E E E E      Q      E E E E E E E E
|--------------------------||--------------------------||
|-------------------------o||--------------------------||
|--------------------------||--------------------------||
|-----------------------9--||--------------------------||
|-(2)-------------------7-o||-(2)-------------------2--||
|-(0)-----0-3-2-0-3-2-3----||-(0)-----0-3-2-0-3-2-3-0--||
|
|---------------------|        PM-----------------|
|  E  S S E E E E E E E E      E  S S E E E E E E E E
|--------------------------||--------------------------||
|-------------------------o||--------------------------||
|--------------------------||--------------------------||
|--------------------------||--------------------------||
|-------------------------o||--------------------------||
|--0--0-0-0-3-2-0-3-2-3----||--0--0-0-0-3-2-0-3-2-3----||


 Bridge
  Faster Q=192
  E5         E5       N.C.          E5             E5       N.C.          C
 4/4
       PM--|    PM----------------|          PM--|    PM----------------|
  +Q   S S E Q  E E   E E E E E E E E   +Q   S S E Q  E E   E E E E E E E E
|-------------------|-----------------|-------------------|-----------------|
|-------------------|-----------------|-------------------|-----------------|
|-------------------|-----------------|-------------------|-----------------|
|------------9------|-----------------|------------9------|---------------2-|
|-(2)--------7------|---------------2-|-(2)--------7------|---------------3-|
|-(0)--0-0-0-0--0-0-|-0-3-2-0-3-2-3-0-|-(0)--0-0-0-0--0-0-|-0-3-2-0-3-2-3---|


               D                E5             E5       N.C.           E5
         PM--|            PM--|          PM--|    PM-----------------|
  +H     E E E E   +H     E E E E   +Q   S S E Q  E E   E  E E E E E E  E
|----------------|----------------|-------------------|-----------------------|
|----------------|----------------|-------------------|-----------------------|
|----------------|----------------|-------------------|-----------------------|
|-(2)----------4-|-(4)------------|------------9------|-----------------------|
|-(3)----3-2-3-5-|-(5)----------2-|-(2)--------7------|-----------------2-----|
|----------------|--------3-2-3-0-|-(0)--0-0-0-0--0-0-|-0--3-2-0-3-2-3--0-----|
|
| Gtr III
|  W                W                W                  H.           E  E
|----------------|----------------|-------------------|----------------12-----|
|----------------|----------------|-------------------|----------------15b17==|
|----------------|----------------|-------------------|-----------------------|
|----------------|----------------|-------------------|-----------------------|
|----------------|----------------|-------------------|-----------------------|
|----------------|----------------|-------------------|-----------------------|


              E5       N.C.                 E5
        PM--|    PM-----------------------|
   +Q   S S E Q  E E     E  E E E  E    E E E
|--------------------|------------------------|
|--------------------|------------------------|
|--------------------|------------------------|
|-------------9------|------------------------|
|--(2)--------7------|----------------------2-|
|--(0)--0-0-0-0--0-0-|---0--3-2-0--3----2-3-0-|
|
|   ~~~~~~~~~~~~~~~~~~~~~~~~
|  +W                   +H         H
|-(12)---------------|-(12)-------12----------|
|-(15)---------------|-(15)-------15b17-------|
|--------------------|------------------------|
|--------------------|------------------------|
|--------------------|------------------------|
|--------------------|------------------------|
|
| Gtr II
|   W                    H         H
|--------------------|------------------------|
|--------------------|------------------------|
|--------------------|-------------9----------|
|--------------------|------------------------|
|--------------------|------------------------|
|--------------------|------------------------|


                E5       N.C.                 C
          PM--|    PM-----------------------|
  +Q      S S E Q  E E     E  E E E  E    E E E
|----------------------|--------------------------|
|----------------------|--------------------------|
|----------------------|--------------------------|
|---------------9------|----------------------2---|
|-(2)-----------7------|----------------------3---|
|-(0)-----0-0-0-0--0-0-|---0--3-2-0--3----2-3-----|
|
|  ~~~~~~~~~~~~~~~~~~~~~~~~~~~
|  W                      +H         H
|-14-------------------|-(14)-------14------------|
|-17b19================|=(17)-------17b19---------|
|----------------------|--------------------------|
|----------------------|--------------------------|
|----------------------|--------------------------|
|----------------------|--------------------------|
|
|  ~~~~~~~~~~~~~~~~~~~~~~~~~~~
|  W                      +H         H
|----------------------|--------------------------|
|----------------------|--------------------------|
|-11-------------------|-(11)-------11------------|
|----------------------|--------------------------|
|----------------------|--------------------------|
|----------------------|--------------------------|


                    D                        E5
           PM--|                    PM--|
  +H       E E   E   E       +H     E E   E   E
|-------------------------|-------------------------|
|-------------------------|-------------------------|
|-------------------------|-------------------------|
|-(2)----------------4----|--(4)--------------------|
|-(3)------3-2---3---5----|--(5)--------------2-----|
|-------------------------|---------3-2---3---0-----|
|
|  ~~~~~~~~~~~~~~~~~~~~~~~~~~~~~~~~~~~~~~~~~~~~~~~~~~
|  H.           +E   E       +H.         +E   E
|-15-----------(15)-17----|-(17)--------(17)-19-----|
|-18b20--------(18)-20b22-|-(20)--------(20)-22b24==|
|-------------------------|-------------------------|
|-------------------------|-------------------------|
|-------------------------|-------------------------|
|-------------------------|-------------------------|
|
|  ~~~~~~~~~~~~~~~~~~~~~~~~~~~~~~~~~~~~~~~~~~~~~~~~~~
|  H.           +E   E       +H.         +E   E
|-------------------------|-------------------------|
|-------------------------|-------------------------|
|--9------------(9)--7----|--(7)---------(7)--------|
|-------------------------|-------------------9-----|
|-------------------------|-------------------------|
|-------------------------|-------------------------|


                                      D.S.
              E5       N.C.             E5
        PM--|    PM-------------------|
   +Q   S S E Q  E E     E  E E E E E E E
|--------------------|-----------------------||
|--------------------|-----------------------||
|--------------------|-----------------------||
|-------------9------|------------------9----||
|--(2)--------7------|------------------7----||
|--(0)--0-0-0-0--0-0-|---0--3-2-0-3-2-3------||
|
|                        >
|~~~~~~~~~~~~~~~~~~~~~~~~~~~
|  +W                   +W
|-(19)---------------|-(19)------------------||
|-(22)---------------|-(22)------------------||
|--------------------|-----------------------||
|--------------------|-----------------------||
|--------------------|-----------------------||
|--------------------|-----------------------||
|
|                        >
|~~~~~~~~~~~~~~~~~~~~~~~~~~~
|  +W                   +W
|--------------------|-----------------------||
|--------------------|-----------------------||
|--------------------|-----------------------||
|--(9)---------------|--(9)------------------||
|--------------------|-----------------------||
|--------------------|-----------------------||


 Interlude
  Em      BmC   D  C  Bm C D5/A         C5D5/AE5/D5/C5/D5C5/G
                           ~~~~~~~~                      ~
  H.      E E   Q  Q  Q  E E   +H.      E E   Q  Q  Q  E E
|-------------|-2------------|--------------|--------------|
|---------3-5-|-3--5--3--5-3-|-(3)--------3-|-5--3-----3---|
|-0-------4-5-|----5--4--5-2-|-(2)------5-2-|-4--2--5--2-5-|
|-2-----------|--------------|----------5---|-------5----5-|
|-------------|--------------|--------------|--------------|
|-------------|--------------|--------------|--------------|


         G AmBmAm         F#EmD Em
   ~~~         ~~~~~~~~         ~~~~~~~~~~~~~~~~~~~~~
  +H     E E E E   +H     E E E E   +W           +W
|----------------|----------------|------------|--------|
|----------1-3-1-|-(1)------------|------------|--------|
|-(5)----4-2-4-2-|-(2)----2-0---0-|-(0)--------|-(0)----|
|-(5)----5-------|--------4-2-4-2-|-(2)--------|-(2)----|
|----------------|------------5---|------------|--------|
|----------------|----------------|------------|--------|


  Em               Bm C    D     C    Bm    C  D5/A
                                                ~~~
   H.               E  E    Q    Q     Q     E  E
|------------------------|--2---------------------|
|-------------------3--5-|--3----5-----3-----5--3-|
|--0----------------4--5-|-------5-----4-----5--2-|
|--2---------------------|------------------------|
|------------------------|------------------------|
|------------------------|------------------------|
|
| Gtr III
|  E   E  E  q   E  E  E    E  q    E  E  E  E  E
|-14--12----15--12-14-12-|----15---12-17-12-15-12-|
|--------12--------------|-12---------------------|
|------------------------|------------------------|
|------------------------|------------------------|
|------------------------|------------------------|
|------------------------|------------------------|
|
| Gtr II
|  E   E  E  q   E  E  E    E  q    E  E  E  E  E
|-17--15----19--15-17-15-|----19---15-20-15-19-15-|
|--------15--------------|-15---------------------|
|------------------------|------------------------|
|------------------------|------------------------|
|------------------------|------------------------|
|------------------------|------------------------|


                   C5/D5/A E5/B  D5/A C5/G  D5/C5/G
 ~~~~~                                          ~~
  +H.               E  E    Q    Q     Q     E  E
|------------------------|------------------------|
|-(3)------------------3-|--5----3-----------3----|
|-(2)---------------5--2-|--4----2-----5-----2--5-|
|-------------------5----|-------------5--------5-|
|------------------------|------------------------|
|------------------------|------------------------|
|
|  E   E  E  q   E  E  E    E  q    E  E  E  E  E
|-14--12----15--12-14-12-|----15---12-17-12-15-12-|
|--------13--------------|-13---------------------|
|------------------------|------------------------|
|------------------------|------------------------|
|------------------------|------------------------|
|------------------------|------------------------|
|
|  E   E  E  q   E  E  E    E  q    E  E  E  E  E
|-17--15----19--15-17-15-|----19---15-20-15-19-15-|
|--------17--------------|-17---------------------|
|------------------------|------------------------|
|------------------------|------------------------|
|------------------------|------------------------|
|------------------------|------------------------|


               G Am Bm Am              F#mEm D  Em
   ~~~                  ~~~~~~~~                 ~~~
  +H           E  E  E  E   +H          E  E  E  E
|-------------------------|------------------------|
|-----------------1--3--1-|-(1)--------------------|
|-(5)----------4--2--4--2-|-(2)---------2--0-----0-|
|-(5)----------5----------|-------------4--2--4--2-|
|-------------------------|-------------------5----|
|-------------------------|------------------------|
|
|  E   E  E  q    E  E  E    E   q   E  E  E  E  E
|-15--12----17---12-15-14-|-----17-----19----17-14-|
|--------13---------------|-13------13----15-------|
|-------------------------|------------------------|
|-------------------------|------------------------|
|-------------------------|------------------------|
|-------------------------|------------------------|
|
|  E   E  E  q    E  E  E    E   q   E  E  E  E  E
|-19--15----20---15-19-17-|-----20-----22----20-17-|
|--------17---------------|-17------17----19-------|
|-------------------------|------------------------|
|-------------------------|------------------------|
|-------------------------|------------------------|
|-------------------------|------------------------|


 ~~~~~~~~~~~~~~~~~~~~~~~~~~~~~~
  +W                      +W
|----------------------|----------------------------|
|----------------------|----------------------------|
|-(0)------------------|--(0)-----------------------|
|-(2)------------------|--(2)-----------------------|
|----------------------|----------------------------|
|----------------------|----------------------------|
|
|  ~~~~~~~~~~~~~                                  ~~
|  H.       +E   E        +E    E  E  E  E  E  E  E
|-15-------(15)-15b16==|=(15)r-14-------------------|
|----------------------|----------17-15-14----------|
|----------------------|-------------------16-14----|
|----------------------|-------------------------17-|
|----------------------|----------------------------|
|----------------------|----------------------------|
|
|  ~~~                                            ~~
|  H.       +E   E        +E    E  E  E  E  E  E  E
|-19-------(19)-19b20==|=(19)r-17-------------------|
|----------------------|----------20-19-17----------|
|----------------------|-------------------19-17----|
|----------------------|-------------------------21-|
|----------------------|----------------------------|
|----------------------|----------------------------|


  E5                               C                                    D5
   W             +H.           +E  E   +W             +H.           +E  E
|--------------|---------------------|--------------|---------------------|
|--------------|---------------------|--------------|---------------------|
|--------------|---------------------|--------------|---------------------|
|--9-----------|-(9)-----------(9)-2-|-(2)----------|-(2)-----------(2)-7-|
|--7-----------|-(7)-----------(7)-3-|-(3)----------|-(3)-----------(3)-5-|
|--------------|---------------------|--------------|---------------------|
|
| Gtr III
|  H.      E E   +Q   H.                H.      E E   +Q   H.
|------------0-|-(0)-----------------|------------0-|-(0)-----------------|
|--------------|---------------------|--------------|---------------------|
|--------------|------4--------------|--------------|------4--------------|
|--------------|---------------------|--------------|---------------------|
|--------------|---------------------|--------------|---------------------|
|--------------|---------------------|--------------|---------------------|
|
| Gtr II
|  ~~~                                  ~~~
|  W              Q.      Q.    Q       W              Q.      Q.    Q
|--------------|---------------------|--------------|---------------------|
|-/8-----------|--8------10----12----|--8-----------|--8------10----12----|
|-/9-----------|--9------11----12----|--9-----------|--9------11----12----|
|--------------|---------------------|--------------|---------------------|
|--------------|---------------------|--------------|---------------------|
|--------------|---------------------|--------------|---------------------|


                                 G5
  +W              +H.        +E  E
|--------------|-------------------|
|--------------|-------------------|
|--------------|-------------------|
|-(7)----------|--(7)--------(7)---|
|-(5)----------|--(5)--------(5)-5-|
|--------------|-----------------3-|
|
|  H.      E E    +Q   H.
|------------0-|--(0)--------------|
|--------------|-------------------|
|--------------|-------4-----------|
|--------------|-------------------|
|--------------|-------------------|
|--------------|-------------------|
|
|  ~~~~~~~~~~~~~~~~~~~
|  W              +W
|--------------|-------------------|
|-10-----------|-(10)--------------|
|-11-----------|-(11)--------------|
|--------------|-------------------|
|--------------|-------------------|
|--------------|-------------------|


                         A5                    G5 A5   E5
                       PM
  +H.                  E  E        +H           E E  E  E
|-------------------------------|-------------------------|
|-------------------------------|-------------------------|
|-------------------------------|-------------------------|
|-------------------------------|-----------------------9-|
|-(5)---------------------7-----|--(7)----------5-7-----7-|
|-(3)------------------3--5-----|--(5)----------3-5-------|
|
|  W                                W
|-------------------------------|-------------------------|
|-------------------------------|-------------------------|
|-------------------------------|-------------------------|
|-------------------------------|-------------------------|
|-------------------------------|-------------------------|
|-------------------------------|-------------------------|
|
|                                                       ~~
|  E    E  E  E  E  E  E  E        +Q     E  E  Q    E  E
|------------12-14-15-17-17b19==|=(17)r--17-15-14---15-12-|
|-----/13-15--------------------|----------------------12-|
|-------------------------------|-------------------------|
|-------------------------------|-------------------------|
|-------------------------------|-------------------------|
|-------------------------------|-------------------------|


                                    C
   +W             +H.           +E  E
|---------------|---------------------|
|---------------|---------------------|
|---------------|---------------------|
|--(9)----------|-(9)-----------(9)-2-|
|--(7)----------|-(7)-----------(7)-3-|
|---------------|---------------------|
|
|   H.      E E   +Q   H.
|-------------0-|-(0)-----------------|
|---------------|---------------------|
|---------------|------4--------------|
|---------------|---------------------|
|---------------|---------------------|
|---------------|---------------------|
|
|   ~~~~
|  +W              Q.      Q.    Q
|-(12)----------|-12------14----15----|
|-(12)----------|---------------------|
|---------------|--9------11----12----|
|---------------|---------------------|
|---------------|---------------------|
|---------------|---------------------|


                                     D5
  +W             +H.           +E      E
|--------------|---------------------------|
|--------------|---------------------------|
|--------------|---------------------------|
|-(2)----------|-(2)-----------(2)-----7---|
|-(3)----------|-(3)-----------(3)-----5---|
|--------------|---------------------------|
|
|  H.      E E   +Q   H.
|------------0-|-(0)-----------------------|
|--------------|---------------------------|
|--------------|------4--------------------|
|--------------|---------------------------|
|--------------|---------------------------|
|--------------|---------------------------|
|
|  ~~~
|  W              Q.      Q.    E     +E
|-12-----------|-12------14----17b19r(17)p=|
|--------------|---------------------------|
|--9-----------|--9------11----14b16r(14)p=|
|--------------|---------------------------|
|--------------|---------------------------|
|--------------|---------------------------|


                                         G5
  +W                    +H.          +E  E
|--------------------|---------------------|
|--------------------|---------------------|
|--------------------|---------------------|
|-(7)----------------|--(7)----------(7)---|
|-(5)----------------|--(5)----------(5)-5-|
|--------------------|-------------------3-|
|
|  H.         E   E     +Q   H.
|-----------------0--|--(0)----------------|
|--------------------|---------------------|
|--------------------|-------4-------------|
|--------------------|---------------------|
|--------------------|---------------------|
|--------------------|---------------------|
|
|      ~~~~~~~~~~~~~~~~~~~~~
|  E   H.        +E     +H        H
|-15--17--------(17)-|-(17)------17--------|
|--------------------|---------------------|
|-12--14--------(14)-|-(14)------14--------|
|--------------------|---------------------|
|--------------------|---------------------|
|--------------------|---------------------|


             A5                 G5A5    E5
           PM
  +H.      E E   +H             E  E  E  E
|--------------|---------------------------||
|--------------|---------------------------||
|--------------|---------------------------||
|--------------|-------------------------9-||
|-(5)--------7-|-(7)------------5--7-----7-||
|-(3)------3-5-|-(5)------------3--5-------||
|
|  W              W
|--------------|---------------------------||
|--------------|---------------------------||
|--------------|---------------------------||
|--------------|---------------------------||
|--------------|---------------------------||
|--------------|---------------------------||
|
|  ~~~                     ~~~~~         ~~
|  W              Q       +Q.      E  E  E
|-19-----------|-19b21===(19)r----19p17-19-||
|--------------|---------------------------||
|-16-----------|-16b18===(16)r----16p14-16-||
|--------------|---------------------------||
|--------------|---------------------------||
|--------------|---------------------------||


   Chorus
    Q=180
    E5                                            G5    D5
     +W                             +H            Q     Q
||--------------------------------|---------------------------|
||o-------------------------------|---------------------------|
||--------------------------------|---------------7-----------|
||---(9)--------------------------|-(9)-----------5-----7-----|
||o--(7)--------------------------|-(7)-----------------5-----|
||--------------------------------|---------------------------|
|
|     PM----------------------------------------------------|
|     E  S S E S S   E  S S E S S    E  S S E S S E S S E S S
||--------------------------------|---------------------------|
||o-------------------------------|---------------------------|
||--------------------------------|---------------------------|
||--------------------------------|---------------------------|
||o-------------------------------|---------------------------|
||----0--0-0-0-0-0---0--0-0-0-0-0-|--0--0-0-0-0-0-0-0-0-0-0-0-|
|
|   Gtr II
|                    >
|     ~~~~~~~~~~~~~~~~~~
|    +H             +H               W
||--(19)-----------(19)-----------|---------------------------|
||o-------------------------------|---------------------------|
||--(16)-----------(16)-----------|---------------------------|
||--------------------------------|---------------------------|
||o-------------------------------|---------------------------|
||--------------------------------|---------------------------|


                                      E5    C5
  +W                          +Q      Q     H
|---------------------------|---------------------------|
|---------------------------|---------------------------|
|---------------------------|---------4-----------------|
|-(7)-----------------------|-(7)-----2-----5-----------|
|-(5)-----------------------|-(5)-----------3-----------|
|---------------------------|---------------------------|
|
|  PM----------------------------------------------------
|  E  S S E S S E S S E S S    E  S S E S S E S S E S S
|---------------------------|---------------------------|
|---------------------------|---------------------------|
|---------------------------|---------------------------|
|---------------------------|---------------------------|
|---------------------------|---------------------------|
|--0--0-0-0-0-0-0-0-0-0-0-0-|--0--0-0-0-0-0-0-0-0-0-0-0-|


                G/B
  +H            H
|----------------------------|
|----------------------------|
|----------------------------|
|-(5)-----------5------------|
|-(3)-----------2------------|
|----------------------------|
|
|-------------------------|
|  E  S S E S S E S S E S S
|----------------------------|
|----------------------------|
|----------------------------|
|----------------------------|
|----------------------------|
|--0--0-0-0-0-0-0-0-0-0-0-0--|


                E5
 5/4
  +H            H.
|----------------------------------|
|----------------------------------|
|----------------------------------|
|-(5)------------------------------|
|-(2)-----------2------------------|
|---------------0------------------|
|
|  PM-------------------------------
|  E  S S E S S E  S S E S S E S S
|----------------------------------|
|----------------------------------|
|----------------------------------|
|----------------------------------|
|----------------------------------|
|--0--0-0-0-0-0-0--0-0-0-0-0-0-0-0-|
|
| Gtr II
|  W                         Q
|----------------------------------|
|----------------------------------|
|----------------------------------|
|----------------------------------|
|----------------------------------|
|----------------------------------|


 1.                          2.
          N.C.          E5    E5      N.C.             E5
          PM----------|               PM------------|
  +Q      E E E E E E E E      Q      E E E E   E E  E E
|--------------------------||-----------------------------||
|-------------------------o||-----------------------------||
|--------------------------||-----------------------------||
|-----------------------9--||-----------------------------||
|-(2)-------------------7-o||-(2)----------------------2--||
|-(0)-----0-3-2-0-3-2-3----||-(0)-----0-3-2-0---3-2--3-0--||
|
|---------------------|        PM-------------------|
|  E  S S E E E E E E E E      E  S S E E E E   E E  E E
|--------------------------||-----------------------------||
|-------------------------o||-----------------------------||
|--------------------------||-----------------------------||
|--------------------------||-----------------------------||
|-------------------------o||-----------------------------||
|--0--0-0-0-3-2-0-3-2-3----||--0--0-0-0-3-2-0---3-2--3----||
|
|  W                  Q        H.               Q    Q
|--------------------------||-----------------/10---10----||
|-------------------------o||-----------------------------||
|--------------------------||-----------------------------||
|--------------------------||-----------------------------||
|-------------------------o||-----------------------------||
|--------------------------||-----------------------------||


 Outro
  Faster Q=192
  E5         E5         N.C.            E5
 4/4
       PM--|      PM------------------|
  +Q   S S E   Q  E E    E E E E  E E E E
|---------------------|-------------------|
|---------------------|-------------------|
|---------------------|-------------------|
|--------------9------|-------------------|
|-(2)----------7------|-----------------2-|
|-(0)--0-0-0---0--0-0-|--0-3-2-0--3-2-3-0-|
|
|  ~~~~~~~~~~~~~~~~~~~~~~~~~~~~~~~~~~~~~~~~
|  H           H         H        H
|-12---------/15------|-14-------10-------|
|---------------------|-------------------|
|---------------------|-------------------|
|---------------------|-------------------|
|---------------------|-------------------|
|---------------------|-------------------|


             E5       N.C.                   C
       PM--|    PM------------------------|
  +Q   S S E Q  E E    E    E  E  E  E  E  E  E
|-------------------|------------------------------|
|-------------------|------------------------------|
|-------------------|------------------------------|
|------------9------|-------------------------2----|
|-(2)--------7------|-------------------------3----|
|-(0)--0-0-0-0--0-0-|--0----3--2--0--3--2--3-------|
|
|~~~~~
|  W                   q       E  E  E  E  E  E
|-12----------------|------------------------------|
|-------------------|-15b17---15-13-12-------------|
|-------------------|------------------14-12-14b16-|
|-------------------|------------------------------|
|-------------------|------------------------------|
|-------------------|------------------------------|


                        D                          E5
           PM--------|                PM--------|
   +H      E      E   E  E    +H      E      E   E E
|--------------------------|-------------------------|
|--------------------------|-------------------------|
|--------------------------|-------------------------|
|--(2)-------------------4-|--(4)--------------------|
|--(3)-----3------2---3--5-|--(5)------------------2-|
|--------------------------|----------3------2---3-0-|
|
|                        ~~~~~~~~~                 ~~~
|  +H      E     +E   E  E    +H      E     +E   E E
|--------------------------|-------------------------|
|--------------------------|-------------------------|
|-(14)----14b16r(14)-12-11-|-(11)----12b14r(12)-11-9-|
|--------------------------|-------------------------|
|--------------------------|-------------------------|
|--------------------------|-------------------------|


             E5       N.C.                E5
       PM--|    PM---------------------|
  +Q   S S E Q  E E   E  E  E  E  E  E  E  E
|-------------------|------------------------|
|-------------------|------------------------|
|-------------------|------------------------|
|------------9------|------------------------|
|-(2)--------7------|----------------------2-|
|-(0)--0-0-0-0--0-0-|-0--3--2--0--3--2--3--0-|
|
|~~~~~                                     ~~
| +W                  E  E  E  E  E  E  E  E
|-------------------|---------------------12-|
|-------------------|------------------------|
|-(9)---------------|------------12-14-16----|
|-------------------|---12-14-16-------------|
|-------------------|------------------------|
|-------------------|------------------------|


              E5       N.C.                 E5
        PM--|    PM-----------------------|
   +Q   S S E Q  E E     E  E E E  E    E E E
|--------------------|------------------------|
|--------------------|------------------------|
|--------------------|------------------------|
|-------------9------|------------------------|
|--(2)--------7------|----------------------2-|
|--(0)--0-0-0-0--0-0-|---0--3-2-0--3----2-3-0-|
|
|   ~~~~~~~~~~~~~~~~~~~~~~~~
|  +W                   +H         H
|-(12)---------------|-(12)-------12----------|
|--------------------|------------15b17-------|
|--------------------|------------------------|
|--------------------|------------------------|
|--------------------|------------------------|
|--------------------|------------------------|
|
| Gtr II
|   W                    H         H
|--------------------|------------------------|
|--------------------|------------------------|
|--------------------|-------------9----------|
|--------------------|------------------------|
|--------------------|------------------------|
|--------------------|------------------------|


                E5       N.C.                 C
          PM--|    PM-----------------------|
  +Q      S S E Q  E E     E  E E E  E    E E E
|----------------------|--------------------------|
|----------------------|--------------------------|
|----------------------|--------------------------|
|---------------9------|----------------------2---|
|-(2)-----------7------|----------------------3---|
|-(0)-----0-0-0-0--0-0-|---0--3-2-0--3----2-3-----|
|
|  ~~~~~~~~~~~~~~~~~~~~~~~~~~~
|  W                      +H         H
|-14-------------------|-(14)-------14------------|
|-17b19================|=(17)-------17b19---------|
|----------------------|--------------------------|
|----------------------|--------------------------|
|----------------------|--------------------------|
|----------------------|--------------------------|
|
|  ~~~~~~~~~~~~~~~~~~~~~~~~~~~
|  W                      +H         H
|----------------------|--------------------------|
|----------------------|--------------------------|
|-11-------------------|-(11)-------11------------|
|----------------------|--------------------------|
|----------------------|--------------------------|
|----------------------|--------------------------|


                    D                        E5
           PM--|                    PM--|
  +H       E E   E   E       +H     E E   E   E
|-------------------------|-------------------------|
|-------------------------|-------------------------|
|-------------------------|-------------------------|
|-(2)----------------4----|--(4)--------------------|
|-(3)------3-2---3---5----|--(5)--------------2-----|
|-------------------------|---------3-2---3---0-----|
|
|  ~~~~~~~~~~~~~~~~~~~~~~~~~~~~~~~~~~~~~~~~~~~~~~~~~~
|  H.           +E   E       +H.         +E   E
|-15-----------(15)-17----|-(17)--------(17)-19-----|
|-18b20--------(18)-20b22-|-(20)--------(20)-22b24==|
|-------------------------|-------------------------|
|-------------------------|-------------------------|
|-------------------------|-------------------------|
|-------------------------|-------------------------|
|
|  ~~~~~~~~~~~~~~~~~~~~~~~~~~~~~~~~~~~~~~~~~~~~~~~~~~
|  H.           +E   E       +H.         +E   E
|-------------------------|-------------------------|
|-------------------------|-------------------------|
|--9------------(9)--7----|--(7)---------(7)--------|
|-------------------------|-------------------9-----|
|-------------------------|-------------------------|
|-------------------------|-------------------------|


              E5       N.C.             E5  N.C.
        PM--|    PM-------------------|
   +Q   S S E Q  E E     E  E E E E E E E   W
|--------------------|--------------------|------*|
|--------------------|--------------------|------*|
|--------------------|--------------------|------*|
|-------------9------|--------------------|------*|
|--(2)--------7------|------------------2-|------*|
|--(0)--0-0-0-0--0-0-|---0--3-2-0-3-2-3-0-|------*|
|
|~~~~~~~~~~~~~~~~~~~~~~~~~~~
|  +W                   +W                  W
|-(19)---------------|-(19)---------------|------*|
|-(22)---------------|-(22)---------------|------*|
|--------------------|--------------------|------*|
|--------------------|--------------------|------*|
|--------------------|--------------------|------*|
|--------------------|--------------------|------*|
|
|~~~~~~~~~~~~~~~~~~~~~~~~~~~
|  +W                   +W                  W
|--------------------|--------------------|------*|
|--------------------|--------------------|------*|
|--------------------|--------------------|------*|
|--(9)---------------|--(9)---------------|------*|
|--------------------|--------------------|------*|
|--------------------|--------------------|------*|



Duration Legend
---------------
W - whole; H - half; Q - quarter; E - 8th; S - 16th; T - 32nd; X - 64th; a - acciaccatura
+ - note tied to previous; . - note dotted; .. - note double dotted
Uncapitalized letters represent notes that are staccato (1/2 duration)
Irregular groupings are notated above the duration line
Duration letters will always appear directly above the note/fret number it represents the
duration for.  Duration letters with no fret number below them represent rests.  Multi-
bar rests are notated in the form Wxn, where n is the number of bars to rest for.  Low
melody durations appear below the staff

Tablature Legend
----------------
 h   - hammer-on
 p   - pull-off
 b   - bend
 pb  - pre-bend
 r   - bend release (if no number after the r, then release immediately)
 /\  - slide into or out of (from/to "nowhere")
 s   - legato slide
 S   - shift slide
 - natural harmonic
[n]  - artificial harmonic
n(n) - tapped harmonic
 ~   - vibrato
 tr  - trill
 T   - tap
 TP  - trem. picking
 PM  - palm muting
\n/  - tremolo bar dip; n = amount to dip
 \n  - tremolo bar down
 n/  - tremolo bar up
/n\  - tremolo bar inverted dip
 =   - hold bend; also acts as connecting device for hammers/pulls
 <> - volume swell (louder/softer)
 x   - on rhythm slash represents muted slash
 o   - on rhythm slash represents single note slash

Misc Legend
-----------
 |  - bar
||  - double bar
||o - repeat start
o|| - repeat end
*|  - double bar (ending)
 :  - bar (freetime)
 $  - Segno
 &  - Coda
Tempo markers -  = BPM(8/16=s8/s16), where s8 = swing 8ths, s16 = swing 16ths

Tap to rate this tab
 
# A B C D E F G H I J K L M N O P Q R S T U V W X Y Z