Song name
# A B C D E F G H I J K L M N O P Q R S T U V W X Y Z

Demons And Wizards - Fiddler On The Green tab

#----------------------------------PLEASE NOTE---------------------------------#
#This file is the author's own work and represents their interpretation of the #
#song. You may only use this file for private study, scholarship, or research. #
#------------------------------------------------------------------------------#

FIDDLER ON THE GREEN
As recorded by Demons & Wizards
(From the 2001 Album DEMONS & WIZARDS)

Transcribed by RoboHondaMonkey
	

Words by Hansi Kürsch Music by Jon Schaffer

A5
x 0 2 2 x x
	
C5
x 3 5 5 x x
	
G5
3 5 5 x x x
	
G/B
x 2 5 4 x x

F5
1 3 3 x x x
	
Am/E
0 0 2 2 1 0

Gtr I (Eb Ab Db Gb Bb Eb) - 'Acoustic 1'
Gtr II (Eb Ab Db Gb Bb Eb) - 'Acoustic 2'
Gtr III (Eb Ab Db Gb Bb Eb) - 'Acoustic 3'
Gtr IV (Eb Ab Db Gb Bb Eb) - 'Distortion 1'
Gtr V (Eb Ab Db Gb Bb Eb) - 'Distortion 2'
Gtr VI (Eb Ab Db Gb Bb Eb) - 'Distortion 3'

   Intro/Verse
    Q.=120
    Am          Asus2         Am          Asus4 Asus2
   12/8
    Gtr I
    E E E E E E E E E E E E   E E E E E E E E E E E E
||--------------------------|-------------------------|
||o-------1-----0-----0-----|-------1-----3-----0-----|
||------2---2-----2-----2---|-----2---2-----2-----2---|
||----2-------2-----2-----2-|---2-------2-----2-----2-|
||o-0-----------------------|-0-----------------------|
||--------------------------|-------------------------|


  Am          Asus2         C           Cadd2 C
  E E E E E E E E E E E E   E E E E E E E E E E E E  4x
|-------------------------|--------------------------||
|-------1-----0-----0-----|-------1-----3-----1-----o||
|-----2---2-----2-----2---|-----0---0-----0-----0----||
|---2-------2-----2-----2-|---2-------2-----2-----2--||
|-0-----------------------|-3-----------------------o||
|-------------------------|--------------------------||


   Chorus
    Am
    Q  E E E E Q  E E E E   Q  E E E E Q  E E E E
||--0--0-0-0-0-0--0-0-0-0-|-0--0-0-0-0-0--0-0-0-0--|
||o-1--1-1-1-1-1--1-1-1-1-|-1--1-1-1-1-1--1-1-1-1--|
||--2--2-2-2-2-2--2-2-2-2-|-2--2-2-2-2-2--2-2-2-2--|
||--2--2-2-2-2-2--2-2-2-2-|-2--2-2-2-2-2--2-2-2-2--|
||o-0--0-0-0-0-0--0-0-0-0-|-0--0-0-0-0-0--0-0-0-0--|
||--0--0-0-0-0-0--0-0-0-0-|-0--0-0-0-0-0--0-0-0-0--|


  C                       G
  Q  E E E E Q  E E E E   Q  E E E E Q  E E E E  4x
|-0--0-0-0-0-0--0-0-0-0-|-3--3-3-3-3-3--3-3-3-3--||
|-1--1-1-1-1-1--1-1-1-1-|-0--0-0-0-0-0--0-0-0-0-o||
|-0--0-0-0-0-0--0-0-0-0-|-0--0-0-0-0-0--0-0-0-0--||
|-2--2-2-2-2-2--2-2-2-2-|-0--0-0-0-0-0--0-0-0-0--||
|-3--3-3-3-3-3--3-3-3-3-|-2--2-2-2-2-2--2-2-2-2-o||
|-0--0-0-0-0-0--0-0-0-0-|-3--3-3-3-3-3--3-3-3-3--||


  F
  Q  E E E E Q  E E E E   Q  E E E E Q  E E E E
|-1--1-1-1-1-1--1-1-1-1-|-1--1-1-1-1-1--1-1-1-1-|
|-1--1-1-1-1-1--1-1-1-1-|-1--1-1-1-1-1--1-1-1-1-|
|-2--2-2-2-2-2--2-2-2-2-|-2--2-2-2-2-2--2-2-2-2-|
|-3--3-3-3-3-3--3-3-3-3-|-3--3-3-3-3-3--3-3-3-3-|
|-0--0-0-0-0-0--0-0-0-0-|-0--0-0-0-0-0--0-0-0-0-|
|-----------------------|-----------------------|


  G
  Q  E E E E Q  E E E E   E E E E W
|-3--3-3-3-3-3--3-3-3-3-|-3-3-3-3------|
|-0--0-0-0-0-0--0-0-0-0-|-0-0-0-0------|
|-0--0-0-0-0-0--0-0-0-0-|-0-0-0-0------|
|-0--0-0-0-0-0--0-0-0-0-|-0-0-0-0------|
|-2--2-2-2-2-2--2-2-2-2-|-2-2-2-2------|
|-3--3-3-3-3-3--3-3-3-3-|-3-3-3-3------|


 Guitar Solo
  Am           Asus2         Am            Asus4   Asus2
  Gtr I
  E  E E E E E E E E E E E    E  E E E E E E E  E  E E E
|--------------------------|-----------------------------|
|--------1-----0-----0-----|---------1-----3-------0-----|
|------2---2-----2-----2---|-------2---2-----2-------2---|
|----2-------2-----2-----2-|-----2-------2------2------2-|
|-0------------------------|--0--------------------------|
|--------------------------|-----------------------------|
|
| Gtr IV
| <                                                <
| ~~~~~~~~~~~~~~~~~~~~~~~~~~~~~~~~~~~~~~~~~~~~~~~~~~~~
| W.                         +W                +E  Q.
|--------------------------|-----------------------------|
|--------------------------|-----------------------------|
|--------------------------|-----------------------------|
|--------------------------|-----------------------------|
|--------------------------|-----------------------2S====|
|-5------------------------|-(5)---------------(5)-------|


  Am           Asus2          C             Cadd2 C
  E  E E E E E E E E E  E E    E  E E E E E E E E E E E
|---------------------------|---------------------------|
|--------1-----0-----0------|---------1-----3-----1-----|
|------2---2-----2------2---|-------0---0-----0-----0---|
|----2-------2-----2------2-|-----2-------2-----2-----2-|
|-0-------------------------|--3------------------------|
|---------------------------|---------------------------|
|
|              <
| ~~~~~~~~~~~~~~~~~~~~~~~~~~~~~~~~
| H.           Q.    Q.       +W.
|---------------------------|---------------------------|
|---------------------------|---------------------------|
|---------------------------|---------------------------|
|---------------------------|---------------------------|
|-3------------2S====3------|-(3)-----------------------|
|---------------------------|---------------------------|


  Am             Asus2            Am            Asus4 Asus2
  Gtr I
   E  E E E  E E  E  E E E  E E    E  E E E E E E E E E  E E
|-------------------------------|----------------------------|
|---------1-------0------0------|---------1-----3-----0------|
|-------2----2-------2------2---|-------2---2-----2------2---|
|-----2--------2-------2------2-|-----2-------2-----2------2-|
|--0----------------------------|--0-------------------------|
|-------------------------------|----------------------------|
|
|         <                                         <
|  ~~~~~~~~~~~~~~~~~~~~~~~~~~~~~~~~~~~~~~~~~~~~~~~~~~~~
| +Q.     Q.     +Q.     Q.       +W                Q    Q
|-------------------------------|----------------------------|
|-------------------------------|----------------------------|
|-------------------------------|----------------------------|
|---------2------(2)S====7------|-(7)---------------9S==10---|
|-(3)---------------------------|----------------------------|
|-------------------------------|----------------------------|


  Am             Asus2              C              Cadd2 C
   E  E E E  E E E E E E  E     E    E  E E E  E E E E E  E  E E
|---------------------------------|------------------------------|
|---------1------0-----0----------|---------1------3------1------|
|-------2----2-----2------2-------|-------0----0-----0-------0---|
|-----2--------2-----2----------2-|-----2--------2-----2-------2-|
|--0------------------------------|--3---------------------------|
|---------------------------------|------------------------------|
|
|  <      <            <     <       <      <
|  ~~~~~~~~~~                ~~~~~~~~~~~~~~~~~~~~~~~~~~~~~~~~
|  Q.     H.           E.    E.      Q.     H.           +Q.
|---------------------------------|------------------------------|
|---------------------------------|------------------------------|
|---------------------------12----|-12---------------------------|
|-10------9------------9----------|---------7------------(7)-----|
|---------------------------------|------------------------------|
|---------------------------------|------------------------------|


  Am           Asus2          Am           Asus4  Asus2
  Gtr I
  E  E E E E E E  E E E E E    E E E E E E E E  E E  E E
|---------------------------|----------------------------|
|--------1-----0------0-----|--------1-----3------0------|
|------2---2------2-----2---|------2---2-----2-------2---|
|----2-------2------2-----2-|----2-------2------2------2-|
|-0-------------------------|--0-------------------------|
|---------------------------|----------------------------|
|
| <            <               <                <
| ~~~~~~~~~~~~~~~~~~~~~~~~~~~~~~~
| H.           H.              W                Q    Q
|---------------------------|----------------------------|
|---------------------------|----------------------------|
|---------------------------|-----------------------10---|
|-7------------9------------|-10---------------12--------|
|---------------------------|----------------------------|
|---------------------------|----------------------------|


  Am          Asus2            C            Cadd2  C
  E E E E E E  E E  E E  E E    E E E E E E E E  E E  E E
|----------------------------|----------------------------|
|-------1------0------0------|--------1-----3------1------|
|-----2---2------2-------2---|------0---0-----0-------0---|
|---2-------2-------2------2-|----2-------2------2------2-|
|-0--------------------------|--3-------------------------|
|----------------------------|----------------------------|
|
| <       <    <    <    <      <                <    <
| ~                             ~~
| H       Q    Q    Q    Q      W                Q    Q
|----------------------------|----------------------------|
|-----------------------10---|-10---------------12---13---|
|-9-------9---10---12--------|----------------------------|
|----------------------------|----------------------------|
|----------------------------|----------------------------|
|----------------------------|----------------------------|


  Am               Asus2            Am           Asus4  Asus2
  Gtr I
   E E E E   E   E  E E  E E  E E    E E E E E E E E  E E  E E
|---------------------------------|----------------------------|
|--------1----------0------0------|--------1-----3------0------|
|------2-----2--------2-------2---|------2---2-----2-------2---|
|----2-----------2-------2------2-|----2-------2------2------2-|
|--0------------------------------|--0-------------------------|
|---------------------------------|----------------------------|
|
|  <                <    <    <      <                <    <
|  ~~~~~~~~~~~~~                     ~~
|  H        +E   E  Q    Q    Q      W                Q    Q
|----------------------------13---|-12---------------12---13---|
|-12-------(12)-12-13---15--------|----------------------------|
|---------------------------------|----------------------------|
|---------------------------------|----------------------------|
|---------------------------------|----------------------------|
|---------------------------------|----------------------------|


  Am             Asus2         C              Cadd2   C
   E E  E E  E E E E E E E E     E  E E E E E  E E  E E  E E
|----------------------------|-------------------------------|
|---------1------0-----0-----|----------1------3------1------|
|-------2----2-----2-----2---|--------0---0------0-------0---|
|----2---------2-----2-----2-|------2-------2-------2------2-|
|--0-------------------------|---3---------------------------|
|----------------------------|-------------------------------|
|
|  <         <                                 <    <    <
|            ~~~~~~~~~~~~~~~~~~~~~~~                     ~~
|  Q    Q    W                  +H.            Q    Q    Q
|-15S==17---17---------------|-(17)-----------17---19---20---|
|----------------------------|-------------------------------|
|----------------------------|-------------------------------|
|----------------------------|-------------------------------|
|----------------------------|-------------------------------|
|----------------------------|-------------------------------|


 Interlude
  Am/E
  Gtr I
    Q   E E E E Q  E E E E    Q   E E E E Q  E E  E E
    |   | | | | |  | | | |    |   | | | | |  | |  | |
    /   / / / / /  / / / /    /   / / / / /  / /  / /

  Gtr IV
    >
    ~~~~
   +W.                        W              H
|-(20)---------------------|--------------------------|
|--------------------------|--------------------------|
|--------------------------|--------------------------|
|--------------------------|--------------------------|
|--------------------------|--------------------------|
|--------------------------|--------------------------|
|
| Gtr II
|   W.                       +H.          Q  Q    Q
|--------------------------|--------------------------|
|--------------------------|--------------------------|
|--------------------------|--------------------------|
|---7----------------------|-(7)----------7--9---10---|
|--------------------------|--------------------------|
|--------------------------|--------------------------|
|
| Gtr III
|   W.                       +H.          Q  Q    Q
|--------------------------|--------------------------|
|--------------------------|--------------------------|
|---5----------------------|-(5)----------5--7----9---|
|--------------------------|--------------------------|
|--------------------------|--------------------------|
|--------------------------|--------------------------|


  C                         G
  Gtr I
   Q   E E E E Q  E E E E    Q   E E E E Q   E E  E E
|--0---0-0-0-0-0--0-0-0-0-|--3---3-3-3-3-3---3-3--3-3-|
|--1---1-1-1-1-1--1-1-1-1-|--0---0-0-0-0-0---0-0--0-0-|
|--0---0-0-0-0-0--0-0-0-0-|--0---0-0-0-0-0---0-0--0-0-|
|--2---2-2-2-2-2--2-2-2-2-|--0---0-0-0-0-0---0-0--0-0-|
|--3---3-3-3-3-3--3-3-3-3-|--2---2-2-2-2-2---2-2--2-2-|
|--0---0-0-0-0-0--0-0-0-0-|--3---3-3-3-3-3---3-3--3-3-|
|
|  W.                        H.          Q.    E  E E
|-------------------------|---------------------------|
|-------------------------|---------------------------|
|-------------------------|---------------------------|
|-------------------------|-10-----------9-----9-10-9-|
|-10----------------------|---------------------------|
|-------------------------|---------------------------|
|
|  W.                        H.          Q.    E  E E
|-------------------------|---------------------------|
|-------------------------|---------------------------|
|--5----------------------|--9-----------7-----7--9-7-|
|-------------------------|---------------------------|
|-------------------------|---------------------------|
|-------------------------|---------------------------|


  Am
  Q   E E E E Q  E E E E    Q   E E E E Q  E E  E E
|-0---0-0-0-0-0--0-0-0-0-|--0---0-0-0-0-0--0-0--0-0-|
|-1---1-1-1-1-1--1-1-1-1-|--1---1-1-1-1-1--1-1--1-1-|
|-2---2-2-2-2-2--2-2-2-2-|--2---2-2-2-2-2--2-2--2-2-|
|-2---2-2-2-2-2--2-2-2-2-|--2---2-2-2-2-2--2-2--2-2-|
|-0---0-0-0-0-0--0-0-0-0-|--0---0-0-0-0-0--0-0--0-0-|
|-0---0-0-0-0-0--0-0-0-0-|--0---0-0-0-0-0--0-0--0-0-|
|
| Gtr II
| W.                       +H.          Q  Q    Q
|------------------------|--------------------------|
|------------------------|--------------------------|
|------------------------|--------------------------|
|-7----------------------|-(7)----------7--9---10---|
|------------------------|--------------------------|
|------------------------|--------------------------|
|
| Gtr III
| W.                       +H.          Q  Q    Q
|------------------------|--------------------------|
|------------------------|--------------------------|
|-5----------------------|-(5)----------5--7----9---|
|------------------------|--------------------------|
|------------------------|--------------------------|
|------------------------|--------------------------|


  C                         G
   Q   E E E E Q  E E E E    Q   E E E E Q   E E E E
|--0---0-0-0-0-0--0-0-0-0-|--3---3-3-3-3-3---3-3-3-3-|
|--1---1-1-1-1-1--1-1-1-1-|--0---0-0-0-0-0---0-0-0-0-|
|--0---0-0-0-0-0--0-0-0-0-|--0---0-0-0-0-0---0-0-0-0-|
|--2---2-2-2-2-2--2-2-2-2-|--0---0-0-0-0-0---0-0-0-0-|
|--3---3-3-3-3-3--3-3-3-3-|--2---2-2-2-2-2---2-2-2-2-|
|--0---0-0-0-0-0--0-0-0-0-|--3---3-3-3-3-3---3-3-3-3-|
|
|  W.                        H.          H.
|-------------------------|--------------------------|
|-------------------------|--------------------------|
|-------------------------|--------------------------|
|-------------------------|-10-----------9-----------|
|-10----------------------|--------------------------|
|-------------------------|--------------------------|
|
|  W.                        H.          H.
|-------------------------|--------------------------|
|-------------------------|--------------------------|
|--5----------------------|--9-----------7-----------|
|-------------------------|--------------------------|
|-------------------------|--------------------------|
|-------------------------|--------------------------|


  Am
   Q   E E E E Q  E E E E     Q   E E E E Q  E E E E
|--0---0-0-0-0-0--0-0-0-0-|---0---0-0-0-0-0--0-0-0-0---|
|--1---1-1-1-1-1--1-1-1-1-|---1---1-1-1-1-1--1-1-1-1---|
|--2---2-2-2-2-2--2-2-2-2-|---2---2-2-2-2-2--2-2-2-2---|
|--2---2-2-2-2-2--2-2-2-2-|---2---2-2-2-2-2--2-2-2-2---|
|--0---0-0-0-0-0--0-0-0-0-|---0---0-0-0-0-0--0-0-0-0---|
|--0---0-0-0-0-0--0-0-0-0-|---0---0-0-0-0-0--0-0-0-0---|
|
| Gtr II
|  W.                        +H.          Q  Q   E S S
|-------------------------|----------------------------|
|-------------------------|----------------------------|
|-------------------------|---------------9--9---9-9-9-|
|-10----------------------|-(10)-----------------------|
|-------------------------|----------------------------|
|-------------------------|----------------------------|
|
| Gtr III
|  W.                        +H.          Q  Q   E S S
|-------------------------|----------------------------|
|-------------------------|---------------8--8---8-8-8-|
|--9----------------------|--(9)-----------------------|
|-------------------------|----------------------------|
|-------------------------|----------------------------|
|-------------------------|----------------------------|


  C                             G
  Q     E E   E  E Q  E E E E   Q   E E E E  Q   E  E E  E
|-0-----0-0---0--0-0--0-0-0-0-|-3---3-3-3-3--3---3--3-3--3-|
|-1-----1-1---1--1-1--1-1-1-1-|-0---0-0-0-0--0---0--0-0--0-|
|-0-----0-0---0--0-0--0-0-0-0-|-0---0-0-0-0--0---0--0-0--0-|
|-2-----2-2---2--2-2--2-2-2-2-|-0---0-0-0-0--0---0--0-0--0-|
|-3-----3-3---3--3-3--3-3-3-3-|-2---2-2-2-2--2---2--2-2--2-|
|-0-----0-0---0--0-0--0-0-0-0-|-3---3-3-3-3--3---3--3-3--3-|
|
| E  Q.      +W                 H.           Q.     E E  E
|-----------------------------|----------------------------|
|-----------------------------|----------------------------|
|-9---------------------------|-9------------7------7-9--7-|
|---10------(10)--------------|----------------------------|
|-----------------------------|----------------------------|
|-----------------------------|----------------------------|
|
| E  Q.      +W                 H.           Q.     E E  E
|-----------------------------|----------------------------|
|-8---------------------------|-8---------------------8----|
|----9-------(9)--------------|-------------10-----10---10-|
|-----------------------------|----------------------------|
|-----------------------------|----------------------------|
|-----------------------------|----------------------------|


  Am
   Q   E E E E Q  E E E E     Q   E E E E Q  E E E E
|--0---0-0-0-0-0--0-0-0-0-|---0---0-0-0-0-0--0-0-0-0---|
|--1---1-1-1-1-1--1-1-1-1-|---1---1-1-1-1-1--1-1-1-1---|
|--2---2-2-2-2-2--2-2-2-2-|---2---2-2-2-2-2--2-2-2-2---|
|--2---2-2-2-2-2--2-2-2-2-|---2---2-2-2-2-2--2-2-2-2---|
|--0---0-0-0-0-0--0-0-0-0-|---0---0-0-0-0-0--0-0-0-0---|
|--0---0-0-0-0-0--0-0-0-0-|---0---0-0-0-0-0--0-0-0-0---|
|
| Gtr II
|  W.                        +H.          Q  Q   E S S
|-------------------------|----------------------------|
|-------------------------|----------------------------|
|-------------------------|---------------9--9---9-9-9-|
|-10----------------------|-(10)-----------------------|
|-------------------------|----------------------------|
|-------------------------|----------------------------|
|
| Gtr III
|  W.                        +H.          Q  Q   E S S
|-------------------------|----------------------------|
|-------------------------|---------------8--8---8-8-8-|
|--9----------------------|--(9)-----------------------|
|-------------------------|----------------------------|
|-------------------------|----------------------------|
|-------------------------|----------------------------|


  C                             G
  Q     E E   E  E Q  E E E E   Q   E E E E  Q   E E E E
|-0-----0-0---0--0-0--0-0-0-0-|-3---3-3-3-3--3---3-3-3-3-|
|-1-----1-1---1--1-1--1-1-1-1-|-0---0-0-0-0--0---0-0-0-0-|
|-0-----0-0---0--0-0--0-0-0-0-|-0---0-0-0-0--0---0-0-0-0-|
|-2-----2-2---2--2-2--2-2-2-2-|-0---0-0-0-0--0---0-0-0-0-|
|-3-----3-3---3--3-3--3-3-3-3-|-2---2-2-2-2--2---2-2-2-2-|
|-0-----0-0---0--0-0--0-0-0-0-|-3---3-3-3-3--3---3-3-3-3-|
|
| E  Q.      +W                 H.           H.
|-----------------------------|--------------------------|
|-----------------------------|--------------------------|
|-9---------------------------|-9------------7-----------|
|---10------(10)--------------|--------------------------|
|-----------------------------|--------------------------|
|-----------------------------|--------------------------|
|
| E  Q.      +W                 H.           H.
|-----------------------------|--------------------------|
|-8---------------------------|-8------------------------|
|----9-------(9)--------------|-------------10-----------|
|-----------------------------|--------------------------|
|-----------------------------|--------------------------|
|-----------------------------|--------------------------|


  F
   Q   E E E E Q  E E E E     Q   E E E E  Q   E E  E E
|--1---1-1-1-1-1--1-1-1-1-|---1---1-1-1-1--1---1-1--1-1-|
|--1---1-1-1-1-1--1-1-1-1-|---1---1-1-1-1--1---1-1--1-1-|
|--2---2-2-2-2-2--2-2-2-2-|---2---2-2-2-2--2---2-2--2-2-|
|--3---3-3-3-3-3--3-3-3-3-|---3---3-3-3-3--3---3-3--3-3-|
|--0---0-0-0-0-0--0-0-0-0-|---0---0-0-0-0--0---0-0--0-0-|
|-------------------------|-----------------------------|
|
|  W.                        +H.           Q   Q    Q
|-------------------------|-----------------------------|
|-------------------------|--------------------8---10---|
|-10----------------------|-(10)----------10------------|
|-------------------------|-----------------------------|
|-------------------------|-----------------------------|
|-------------------------|-----------------------------|
|
|  W.                        +H.           Q   Q    Q
|-------------------------|-----------------------------|
|-10----------------------|-(10)----------10--12---13---|
|-------------------------|-----------------------------|
|-------------------------|-----------------------------|
|-------------------------|-----------------------------|
|-------------------------|-----------------------------|


  G
   Q   E E E E Q  E E E E    E  E  E  E  W
|--3---3-3-3-3-3--3-3-3-3-|--3--3--3--3-------------------------|
|--0---0-0-0-0-0--0-0-0-0-|--0--0--0--0-------------------------|
|--0---0-0-0-0-0--0-0-0-0-|--0--0--0--0-------------------------|
|--0---0-0-0-0-0--0-0-0-0-|--0--0--0--0-------------------------|
|--2---2-2-2-2-2--2-2-2-2-|--2--2--2--2-------------------------|
|--3---3-3-3-3-3--3-3-3-3-|--3--3--3--3-------------------------|
|
|  W.                        E  E  E  E  E  E  E  E  E  E  E  E
|-------------------------|-------------------------------------|
|--8----------------------|-------------------------------------|
|-------------------------|--9--7-----7-------------------------|
|-------------------------|-------10----10--9-10--9--7--9--7----|
|-------------------------|----------------------------------10-|
|-------------------------|-------------------------------------|
|
|  W.                        E  E  E  E  E  E  E  E  E  E  E  E
|-------------------------|-------------------------------------|
|-12----------------------|-------------------------------------|
|-------------------------|-12-10--9-10--9-----9----------------|
|-------------------------|----------------12----12-10-12-10--9-|
|-------------------------|-------------------------------------|
|-------------------------|-------------------------------------|


 Verse
  Am            Asus2         Am          Asus4 Asus2
  Gtr I
   E  E E E E E E E E E E E   E E E E E E E E E E E E
|---------------------------|-------------------------|
|---------1-----0-----0-----|-------1-----3-----0-----|
|-------2---2-----2-----2---|-----2---2-----2-----2---|
|-----2-------2-----2-----2-|---2-------2-----2-----2-|
|--0------------------------|-0-----------------------|
|---------------------------|-------------------------|
|
|  W.                         W
|---------------------------|-------------------------|
|---------------------------|-------------------------|
|---------------------------|-------------------------|
|--7------------------------|-------------------------|
|---------------------------|-------------------------|
|---------------------------|-------------------------|
|
|  W.                         W
|---------------------------|-------------------------|
|---------------------------|-------------------------|
|---------------------------|-------------------------|
|-10------------------------|-------------------------|
|---------------------------|-------------------------|
|---------------------------|-------------------------|


  Am          Asus2         C           Cadd2 C
  E E E E E E E E E E E E   E E E E E E E E E E E E
|-------------------------|-------------------------|
|-------1-----0-----0-----|-------1-----3-----1-----|
|-----2---2-----2-----2---|-----0---0-----0-----0---|
|---2-------2-----2-----2-|---2-------2-----2-----2-|
|-0-----------------------|-3-----------------------|
|-------------------------|-------------------------|


    Am          Asus2         Am          Asus4 Asus2
    Gtr I
    E E E E E E E E E E E E   E E E E E E E E E E E E
||--------------------------|--------------------------|
||o-------1-----0-----0-----|-------1-----3-----0------|
||------2---2-----2-----2---|-----2---2-----2-----2----|
||----2-------2-----2-----2-|---2-------2-----2-----2--|
||o-0-----------------------|-0------------------------|
||--------------------------|--------------------------|


  Am          Asus2         C           Cadd2 C
  E E E E E E E E E E E E   E E E E E E E E E E E E  3x
|-------------------------|--------------------------||
|-------1-----0-----0-----|-------1-----3-----1-----o||
|-----2---2-----2-----2---|-----0---0-----0-----0----||
|---2-------2-----2-----2-|---2-------2-----2-----2--||
|-0-----------------------|-3-----------------------o||
|-------------------------|--------------------------||


   Chorus
    Am
    Q  E E E E Q  E E E E   Q  E E E E Q  E E E E
||--0--0-0-0-0-0--0-0-0-0-|-0--0-0-0-0-0--0-0-0-0--|
||o-1--1-1-1-1-1--1-1-1-1-|-1--1-1-1-1-1--1-1-1-1--|
||--2--2-2-2-2-2--2-2-2-2-|-2--2-2-2-2-2--2-2-2-2--|
||--2--2-2-2-2-2--2-2-2-2-|-2--2-2-2-2-2--2-2-2-2--|
||o-0--0-0-0-0-0--0-0-0-0-|-0--0-0-0-0-0--0-0-0-0--|
||--0--0-0-0-0-0--0-0-0-0-|-0--0-0-0-0-0--0-0-0-0--|


  C                       G
  Q  E E E E Q  E E E E   Q  E E E E Q  E E E E  4x
|-0--0-0-0-0-0--0-0-0-0-|-3--3-3-3-3-3--3-3-3-3--||
|-1--1-1-1-1-1--1-1-1-1-|-0--0-0-0-0-0--0-0-0-0-o||
|-0--0-0-0-0-0--0-0-0-0-|-0--0-0-0-0-0--0-0-0-0--||
|-2--2-2-2-2-2--2-2-2-2-|-0--0-0-0-0-0--0-0-0-0--||
|-3--3-3-3-3-3--3-3-3-3-|-2--2-2-2-2-2--2-2-2-2-o||
|-0--0-0-0-0-0--0-0-0-0-|-3--3-3-3-3-3--3-3-3-3--||


  F
  Q  E E E E Q  E E E E   Q  E E E E Q  E E E E
|-1--1-1-1-1-1--1-1-1-1-|-1--1-1-1-1-1--1-1-1-1-|
|-1--1-1-1-1-1--1-1-1-1-|-1--1-1-1-1-1--1-1-1-1-|
|-2--2-2-2-2-2--2-2-2-2-|-2--2-2-2-2-2--2-2-2-2-|
|-3--3-3-3-3-3--3-3-3-3-|-3--3-3-3-3-3--3-3-3-3-|
|-0--0-0-0-0-0--0-0-0-0-|-0--0-0-0-0-0--0-0-0-0-|
|-----------------------|-----------------------|


  G
  Q  E E E E Q  E E E E   E E E E W
|-3--3-3-3-3-3--3-3-3-3-|-3-3-3-3------|
|-0--0-0-0-0-0--0-0-0-0-|-0-0-0-0------|
|-0--0-0-0-0-0--0-0-0-0-|-0-0-0-0------|
|-0--0-0-0-0-0--0-0-0-0-|-0-0-0-0------|
|-2--2-2-2-2-2--2-2-2-2-|-2-2-2-2------|
|-3--3-3-3-3-3--3-3-3-3-|-3-3-3-3------|


 Chorus
  A5
  Gtr IV
  W.              +W.
|---------------|--------------------|
|---------------|--------------------|
|-2-------------|-(2)----------------|
|-2-------------|-(2)----------------|
|-0-------------|-(0)----------------|
|---------------|--------------------|
|
| Gtr V
| W.              +H.      Q  Q   Q
|---------------|--------------------|
|---------------|--------------------|
|---------------|--------------------|
|-7-------------|-(7)------7--9--10--|
|---------------|--------------------|
|---------------|--------------------|
|
| Gtr VI
| W.              +H.      Q  Q   Q
|---------------|--------------------|
|---------------|--------------------|
|-5-------------|-(5)------5--7---9--|
|---------------|--------------------|
|---------------|--------------------|
|---------------|--------------------|


  C5               G5
   W.               W.
|----------------|-------------------------|
|----------------|-------------------------|
|--5-------------|-------------------------|
|--5-------------|--5----------------------|
|--3-------------|--5----------------------|
|----------------|--3----------------------|
|
|  W.               H.      Q.   E  E E
|----------------|-------------------------|
|----------------|-------------------------|
|----------------|-------------------------|
|----------------|-10-------9----9-10-9----|
|-10-------------|-------------------------|
|----------------|-------------------------|
|
|  W.               H.      Q.   E  E E
|----------------|-------------------------|
|----------------|-------------------------|
|--5-------------|--9-------7----7--9-7----|
|----------------|-------------------------|
|----------------|-------------------------|
|----------------|-------------------------|


  A5                                   C5               G5
  Gtr IV
  W.              +W.                   W.               W.
|---------------|--------------------|----------------|----------------|
|---------------|--------------------|----------------|----------------|
|-2-------------|-(2)----------------|--5-------------|----------------|
|-2-------------|-(2)----------------|--5-------------|--5-------------|
|-0-------------|-(0)----------------|--3-------------|--5-------------|
|---------------|--------------------|----------------|--3-------------|
|
| Gtr V
| W.              +H.      Q  Q   Q     W.               H.      H.
|---------------|--------------------|----------------|----------------|
|---------------|--------------------|----------------|----------------|
|---------------|--------------------|----------------|----------------|
|-7-------------|-(7)------7--9--10--|----------------|-10-------9-----|
|---------------|--------------------|-10-------------|----------------|
|---------------|--------------------|----------------|----------------|
|
| Gtr VI
| W.              +H.      Q  Q   Q     W.               H.      H.
|---------------|--------------------|----------------|----------------|
|---------------|--------------------|----------------|----------------|
|-5-------------|-(5)------5--7---9--|--5-------------|--9-------7-----|
|---------------|--------------------|----------------|----------------|
|---------------|--------------------|----------------|----------------|
|---------------|--------------------|----------------|----------------|


  A5
  Gtr IV
   W.               +W.
|----------------|-----------------------|
|----------------|-----------------------|
|--2-------------|--(2)------------------|
|--2-------------|--(2)------------------|
|--0-------------|--(0)------------------|
|----------------|-----------------------|
|
| Gtr V
|  W.               +H.      Q  Q  E S S
|----------------|-----------------------|
|----------------|-----------------------|
|----------------|-----------9--9--9-9-9-|
|-10-------------|-(10)------------------|
|----------------|-----------------------|
|----------------|-----------------------|
|
| Gtr VI
|  W.               +H.      Q  Q  E S S
|----------------|-----------------------|
|----------------|-----------8--8--8-8-8-|
|--9-------------|--(9)------------------|
|----------------|-----------------------|
|----------------|-----------------------|
|----------------|-----------------------|


  C5                     G5
  W.                     W.
|----------------------|-------------------------|
|----------------------|-------------------------|
|-5--------------------|-------------------------|
|-5--------------------|-5-----------------------|
|-3--------------------|-5-----------------------|
|----------------------|-3-----------------------|
|
| E   Q.    +W           H.       Q.    E E  E
|----------------------|-------------------------|
|----------------------|-------------------------|
|-9--------------------|-9--------7-----7-9--7---|
|----10----(10)--------|-------------------------|
|----------------------|-------------------------|
|----------------------|-------------------------|
|
| E   Q.    +W           H.       Q.    E E  E
|----------------------|-------------------------|
|-8--------------------|-8----------------8------|
|-----9-----(9)--------|---------10----10---10---|
|----------------------|-------------------------|
|----------------------|-------------------------|
|----------------------|-------------------------|


  A5
  Gtr IV
   W.               +W.
|----------------|-----------------------|
|----------------|-----------------------|
|--2-------------|--(2)------------------|
|--2-------------|--(2)------------------|
|--0-------------|--(0)------------------|
|----------------|-----------------------|
|
| Gtr V
|  W.               +H.      Q  Q  E S S
|----------------|-----------------------|
|----------------|-----------------------|
|----------------|-----------9--9--9-9-9-|
|-10-------------|-(10)------------------|
|----------------|-----------------------|
|----------------|-----------------------|
|
| Gtr VI
|  W.               +H.      Q  Q  E S S
|----------------|-----------------------|
|----------------|-----------8--8--8-8-8-|
|--9-------------|--(9)------------------|
|----------------|-----------------------|
|----------------|-----------------------|
|----------------|-----------------------|


  C5                     G5
  W.                     W.
|----------------------|----------------|
|----------------------|----------------|
|-5--------------------|----------------|
|-5--------------------|-5--------------|
|-3--------------------|-5--------------|
|----------------------|-3--------------|
|
| E   Q.    +W           H.       H.
|----------------------|----------------|
|----------------------|----------------|
|-9--------------------|-9--------7-----|
|----10----(10)--------|----------------|
|----------------------|----------------|
|----------------------|----------------|
|
| E   Q.    +W           H.       H.
|----------------------|----------------|
|-8--------------------|-8--------------|
|-----9-----(9)--------|---------10-----|
|----------------------|----------------|
|----------------------|----------------|
|----------------------|----------------|


  F5
   W.               +W.
|----------------|-----------------------|
|----------------|-----------------------|
|----------------|-----------------------|
|--3-------------|--(3)------------------|
|--3-------------|--(3)------------------|
|--1-------------|--(1)------------------|
|
|  W.               +H.       Q   Q   Q
|----------------|-----------------------|
|----------------|----------------8--10--|
|-10-------------|-(10)------10----------|
|----------------|-----------------------|
|----------------|-----------------------|
|----------------|-----------------------|
|
|  W.               +H.       Q   Q   Q
|----------------|-----------------------|
|-10-------------|-(10)------10--12--13--|
|----------------|-----------------------|
|----------------|-----------------------|
|----------------|-----------------------|
|----------------|-----------------------|


  G5
   W.              +W.
|----------------|-----------------------------------------|
|----------------|-----------------------------------------|
|----------------|-----------------------------------------|
|--5-------------|-(5)-------------------------------------|
|--5-------------|-(5)-------------------------------------|
|--3-------------|-(3)-------------------------------------|
|
|                   PM-------------------------------|
|  W.               E   E  E  E  E  E  E  E  E  E  E  E
|----------------|-----------------------------------------|
|--8-------------|-----------------------------------------|
|----------------|--9---7-----7----------------------------|
|----------------|--------10----10--9-10--9--7--9--7-------|
|----------------|-----------------------------------10----|
|----------------|-----------------------------------------|
|
|                   PM-------------------------------|
|  W.               E   E  E  E  E  E  E  E  E  E  E  E
|----------------|-----------------------------------------|
|-12-------------|-----------------------------------------|
|----------------|-12--10--9-10--9-----9-------------------|
|----------------|-----------------12----12-10-12-10--9----|
|----------------|-----------------------------------------|
|----------------|-----------------------------------------|


 Guitar Solo
  A5                               C5
                                   PM---------|
  W.                     +H.       Q   Q      Q
|----------------------|--------------------------|
|----------------------|--------------------------|
|-2--------------------|-(2)-------5---5------5---|
|-2--------------------|-(2)-------5---5------5---|
|-0--------------------|-(0)-------3---3------3---|
|----------------------|--------------------------|
|
| ~~~~                    ~~~~
| W           +Q   E E    W           +Q      E E
|----------------------|--------------------------|
|----------------------|--------------------------|
|-7b9=========(7)r=7p5-|--7b9---------(7)pb9r=7p5-|
|----------------------|--------------------------|
|----------------------|--------------------------|
|----------------------|--------------------------|


  G5                     C5       G/B
  W.                      H.      H.
|----------------------|------------------------------------|
|----------------------|------------------------------------|
|----------------------|--5-------4-------------------------|
|-5--------------------|--5-------5-------------------------|
|-5--------------------|--3-------2-------------------------|
|-3--------------------|------------------------------------|
|
| ~~                ~~~~~~~~~
| H     E E E E E E Q    +H.      S S S S S S S S S S S S
|----------------------|------------------------------------|
|----------------------|----------------------------5h6h8---|
|-7-----7p5-4h5p4------|----------------------4h5h7---------|
|-----------------5----|----------------3h5h7---------------|
|-------------------5--|-(5)------3h5h7---------------------|
|----------------------|------------------------------------|


  A5                                            C5
                                                 PM-------|
  W.                    +H.                      Q     Q   Q
|---------------------|-------------------------------------------|
|---------------------|-------------------------------------------|
|-2-------------------|-(2)----------------------5-----5---5------|
|-2-------------------|-(2)----------------------5-----5---5------|
|-0-------------------|-(0)----------------------3-----3---3------|
|---------------------|-------------------------------------------|
|
| ~~          ~~~~~~~~~~~~~~~~                   ~~~~~
| Q.   E  Q   H.         H        +E       S  S  H         Q
|-5----8S12--12-------|-------------------------------------------|
|---------------------|-17b18----(17)pb18-15-13-13b15-----13pb15--|
|---------------------|-------------------------------------------|
|---------------------|-------------------------------------------|
|---------------------|-------------------------------------------|
|---------------------|-------------------------------------------|


  G5                                    C5 C5                         G/B
   W.                                       H.                         H.
|----------------------------------------|----------------------------------------|
|----------------------------------------|----------------------------------------|
|----------------------------------------|--5--------------------------4----------|
|--5-------------------------------------|--5--------------------------5----------|
|--5-------------------------------------|--3--------------------------2----------|
|--3-------------------------------------|----------------------------------------|
|
|  ~~~~~                                                                     ~~
|             |-----------3-----------|     |-----------3-----------|
|  H.         E  E  E  E  E  E  E  E  E     E  E  E  E  E  E  E  E  E  E  E  H
|----------------------------------------|----------------------------------------|
|-13b15------15p13p12-13p12----12--------|----------------------------------------|
|---------------------------14----14p12--|-14p12p10-12p10----10-------------------|
|----------------------------------------|----------------14----14p12-------------|
|----------------------------------------|----------------------------14h15-14----|
|----------------------------------------|----------------------------------------|


  A5                                        C5
                                             PM-----|
   W.                          +H.           Q   Q   Q
|----------------------------|--------------------------|
|----------------------------|--------------------------|
|--2-------------------------|-(2)-----------5---5---5--|
|--2-------------------------|-(2)-----------5---5---5--|
|--0-------------------------|-(0)-----------3---3---3--|
|----------------------------|--------------------------|
|
|       ~~~          ~~~            ~~~
|  Q    Q.    E  Q   Q.    E    Q   Q.    E  Q   Q   Q
|-------------------12----12-|-12S=17----17-17--19--20--|
|------13----13-13-----------|--------------------------|
|-14-------------------------|--------------------------|
|----------------------------|--------------------------|
|----------------------------|--------------------------|
|----------------------------|--------------------------|


  G5                                             C5       G/B
   W.                                             H.                         H.
|----------------------------------------------|-----------------------------------|
|----------------------------------------------|-----------------------------------|
|----------------------------------------------|--5--------------------------4-----|
|--5-------------------------------------------|--5--------------------------5-----|
|--5-------------------------------------------|--3--------------------------2-----|
|--3-------------------------------------------|-----------------------------------|
|
|  ~~~~~                                                                     ~~~
|           |------3-------|  |------3-------|    |------3-------|  |--3--|
|  H        E  E  E  E  E  E  E  E  E  E  E  E    E  E  E  E  E  E  E  E  E  H.
|-20b22----20p17----17-------------------------|-----------------------------------|
|----------------20----20p17-20p17----17-------|-----------------------------------|
|----------------------------------19----19p17-|-19p17----17-----------------------|
|----------------------------------------------|-------19----19p17-19p17-----------|
|----------------------------------------------|-------------------------19-17-----|
|----------------------------------------------|-----------------------------------|


  A5                                                           C5
                                                                PM-------|
   W.                                      +H.                  Q     Q   Q
|----------------------------------------|-----------------------------------------|
|----------------------------------------|-----------------------------------------|
|--2-------------------------------------|-(2)------------------5-----5---5--------|
|--2-------------------------------------|-(2)------------------5-----5---5--------|
|--0-------------------------------------|-(0)------------------3-----3---3--------|
|----------------------------------------|-----------------------------------------|
|
|                      ~~~~~                                    ~~~~~
|  Q      E  E  Q      H        E      E    Q      E  E  Q      H         E      E
|----------------------------------------|-----------------------------------------|
|-15b17--15-13-15b17--15b17----15pb17r13-|-15b17--15-13-15b17--15b17-----15pb17r13-|
|----------------------------------------|-----------------------------------------|
|----------------------------------------|-----------------------------------------|
|----------------------------------------|-----------------------------------------|
|----------------------------------------|-----------------------------------------|
|
| Gtr VI
|                      ~~~~~                                    ~~~~~
|  Q      E  E  Q      H        E      E    Q      E  E  Q      H         E      E
|-13b15--13-12-13b15--13b15----13pb15r12-|-13b15--13-12-13b15--13b15-----13pb15r12-|
|----------------------------------------|-----------------------------------------|
|----------------------------------------|-----------------------------------------|
|----------------------------------------|-----------------------------------------|
|----------------------------------------|-----------------------------------------|
|----------------------------------------|-----------------------------------------|


  G5                        C5          G/B
   W.                        H.          H.
|-------------------------|----------------------------|
|-------------------------|----------------------------|
|-------------------------|--5-----------4-------------|
|--5----------------------|--5-----------5-------------|
|--5----------------------|--3-----------2-------------|
|--3----------------------|----------------------------|
|
|  Q   Q   Q   Q   Q   Q     Q   Q   Q   Q    Q   Q
|-------------------------|---------17p=15---17h=19----|
|-15p=13--17p=15--18p=17--|-20p=18---------------------|
|-------------------------|----------------------------|
|-------------------------|----------------------------|
|-------------------------|----------------------------|
|-------------------------|----------------------------|
|
|  Q   Q   Q   Q   Q   Q     Q   Q   Q   Q    Q   Q
|-13p=12--15p=13--17p=15--|-19p=17--20p=19---20h=22----|
|-------------------------|----------------------------|
|-------------------------|----------------------------|
|-------------------------|----------------------------|
|-------------------------|----------------------------|
|-------------------------|----------------------------|


  F5                                                    G5
   W.
|-------------------------------------------------------|
|-------------------------------------------------------|
|-------------------------------------------------------|
|--3----------------------------------------------------|
|--3----------------------------------------------------|
|--1----------------------------------------------------|
|
|  |-----------3-----------|  |-----------3-----------|
|  E  E  E  E  E  E  E  E  E  E  E  E  E  E  E  E  E  E
|-20p19p17-19p17----17----------------------------------|
|----------------20----20p18-20p18p17-18p17----17-------|
|-------------------------------------------19----19p17-|
|-------------------------------------------------------|
|-------------------------------------------------------|
|-------------------------------------------------------|
|
|  |-----------3-----------|  |-----------3-----------|
|  E  E  E  E  E  E  E  E  E  E  E  E  E  E  E  E  E  E
|-24p22p20-22p20----20----------------------------------|
|----------------24----24p22-24p22p20-22p20p18-20p18p17-|
|-------------------------------------------------------|
|-------------------------------------------------------|
|-------------------------------------------------------|
|-------------------------------------------------------|


  +W.
|-------------------------------------------------------|
|-------------------------------------------------------|
|-------------------------------------------------------|
|-(3)---------------------------------------------------|
|-(3)---------------------------------------------------|
|-(1)---------------------------------------------------|
|
|  |-----------3-----------|  |-----------3-----------|
|  E  E  E  E  E  E  E  E  E  E  E  E  E  E  E  E  E  E
|-------------------------------------------------------|
|-------------------------------------------------------|
|-19p17p16-17p16----16----------------------------------|
|----------------19----19p17-19p17p15-17p15----15-------|
|-------------------------------------------19----19p17-|
|-------------------------------------------------------|
|
|  |-----------3-----------|  |-----------3-----------|
|  E  E  E  E  E  E  E  E  E  E  E  E  E  E  E  E  E  E
|-------------------------------------------------------|
|-18p17----17-------------------------------------------|
|-------19----19p17-19p17p16-17p16----16----------------|
|----------------------------------19----19p17-19p17p15-|
|-------------------------------------------------------|
|-------------------------------------------------------|


  F5                                                    G5
   W.
|-------------------------------------------------------|
|-------------------------------------------------------|
|-------------------------------------------------------|
|--5----------------------------------------------------|
|--5----------------------------------------------------|
|--3----------------------------------------------------|
|
|  |-----------3-----------|  |-----------3-----------|
|  E  E  E  E  E  E  E  E  E  E  E  E  E  E  E  E  E  E
|-------------------------------------------------------|
|-------------------------------------------------------|
|-------------------------------------------------------|
|-------------------------------------------------------|
|-19p17p15-17p15----15----------------------------------|
|----------------19----19p17-19p17p15-17p15p13-15p13p12-|
|
|  |-----------3-----------|  |-----------3-----------|
|  E  E  E  E  E  E  E  E  E  E  E  E  E  E  E  E  E  E
|-------------------------------------------------------|
|-------------------------------------------------------|
|-------------------------------------------------------|
|-17p15----15-------------------------------------------|
|-------19----19p17-19p17p15-17p15----15----------------|
|----------------------------------19----19p17-19p17p15-|


  +W.
|-----------------------------------------|
|-----------------------------------------|
|-----------------------------------------|
|-(5)-------------------------------------|
|-(5)-------------------------------------|
|-(3)-------------------------------------|
|
|                                    ~
|  |-----------3-----------|  |-3--|
|  E  E  E  E  E  E  E  E  E  E  E E H
|-----------------------------------------|
|-----------------------------------------|
|-----------------------------------------|
|-----------------------------------------|
|-----------------------------------------|
|-13p12p10-12p10p=8-10p=8p=7--8p=7p5-3----|
|
|                                    ~
|  |-----------3-----------|  |-3--|
|  E  E  E  E  E  E  E  E  E  E  E E H
|-----------------------------------------|
|-----------------------------------------|
|-----------------------------------------|
|-----------------------------------------|
|-----------------------------------------|
|-17p15p13-15p13p12-13p12p10-12p10p8-7----|


   Outro
    A5                                                        C5
    Gtr IV
                                                               PM---------|
     W.                                    +H.                 Q     Q     Q
||---------------------------------------|--------------------------------------|
||o--------------------------------------|--------------------------------------|
||---2-----------------------------------|-(2)-----------------5-----5-----5----|
||---2-----------------------------------|-(2)-----------------5-----5-----5----|
||o--0-----------------------------------|-(0)-----------------3-----3-----3----|
||---------------------------------------|--------------------------------------|
|
|   Gtr V
|                    PM---------------|                     PM---------------|
|    E   E  E  E  E  E  E  E  E  E  E  E    E   E  E  E  E  E  E  E  E  E  E  E
||------------------------------------10-|-----------------------------------10-|
||o-13--12-10----------------10-12-13----|-13--12-10----------------10-12-13----|
||------------12-10--9-10-12-------------|-----------12-10--9-10-12-------------|
||---------------------------------------|--------------------------------------|
||o--------------------------------------|--------------------------------------|
||---------------------------------------|--------------------------------------|
|
|   Gtr VI
|                    PM---------------|                     PM---------------|
|    E   E  E  E  E  E  E  E  E  E  E  E    E   E  E  E  E  E  E  E  E  E  E  E
||---------------------------------------|--------------------------------------|
||o-17--15----------------------15-17-18-|-17--15----------------------15-17-18-|
||---------17-16-14----14-16-17----------|--------17-16-14----14-16-17----------|
||------------------17-------------------|-----------------17-------------------|
||o--------------------------------------|--------------------------------------|
||---------------------------------------|--------------------------------------|


  G5                                     C5                 G/B
   W.                                     H.                 H.
|--------------------------------------|-----------------------------------------------|
|--------------------------------------|-----------------------------------------------|
|--------------------------------------|--5------------------4-------------------------|
|--5-----------------------------------|--5------------------5-------------------------|
|--5-----------------------------------|--3------------------2-------------------------|
|--3-----------------------------------|-----------------------------------------------|
|
|                  PM---------------|
|                                                            |-----------3-----------|
|  E   E  E  E  E  E  E  E  E  E  E  E    E   E  E  E  E  E  E  E  E  E  E  E  E  E  E
|-----------------------------------10-|-----------------------------------------------|
|-13--12-10----------------10-12-13----|-13--12-10----------17p15p13-15p13p12-13p12p10-|
|-----------12-10--9-10-12-------------|-----------12-10--9----------------------------|
|--------------------------------------|-----------------------------------------------|
|--------------------------------------|-----------------------------------------------|
|--------------------------------------|-----------------------------------------------|
|
|                  PM---------------|
|                                                            |-----------3-----------|
|  E   E  E  E  E  E  E  E  E  E  E  E    E   E  E  E  E  E  E  E  E  E  E  E  E  E  E
|--------------------------------------|-----------------------------------------------|
|-17--15----------------------15-17-18-|-17--15-------------20p18p17-18p17p15-17p15p13-|
|--------17-16-14----14-16-17----------|--------17-16-14-------------------------------|
|-----------------17-------------------|-----------------17----------------------------|
|--------------------------------------|-----------------------------------------------|
|--------------------------------------|-----------------------------------------------|


  A5                                                        C5
                                                             PM---------|
   W.                                    +H.                 Q     Q     Q
|--------------------------------------|--------------------------------------|
|--------------------------------------|--------------------------------------|
|--2-----------------------------------|-(2)-----------------5-----5-----5----|
|--2-----------------------------------|-(2)-----------------5-----5-----5----|
|--0-----------------------------------|-(0)-----------------3-----3-----3----|
|--------------------------------------|--------------------------------------|
|
|                  PM---------------|                     PM---------------|
|  E   E  E  E  E  E  E  E  E  E  E  E    E   E  E  E  E  E  E  E  E  E  E  E
|-----------------------------------10-|-----------------------------------10-|
|-13--12-10----------------10-12-13----|-13--12-10----------------10-12-13----|
|-----------12-10--9-10-12-------------|-----------12-10--9-10-12-------------|
|--------------------------------------|--------------------------------------|
|--------------------------------------|--------------------------------------|
|--------------------------------------|--------------------------------------|
|
|                  PM---------------|                     PM---------------|
|  E   E  E  E  E  E  E  E  E  E  E  E    E   E  E  E  E  E  E  E  E  E  E  E
|--------------------------------------|--------------------------------------|
|-17--15----------------------15-17-18-|-17--15----------------------15-17-18-|
|--------17-16-14----14-16-17----------|--------17-16-14----14-16-17----------|
|-----------------17-------------------|-----------------17-------------------|
|--------------------------------------|--------------------------------------|
|--------------------------------------|--------------------------------------|


  G5                                     C5                 G/B
   W.                                     H.                 H.
|--------------------------------------|-----------------------------------------------|
|--------------------------------------|-----------------------------------------------|
|--------------------------------------|--5------------------4-------------------------|
|--5-----------------------------------|--5------------------5-------------------------|
|--5-----------------------------------|--3------------------2-------------------------|
|--3-----------------------------------|-----------------------------------------------|
|
|                  PM---------------|
|                                                            |-----------3-----------|
|  E   E  E  E  E  E  E  E  E  E  E  E    E   E  E  E  E  E  E  E  E  E  E  E  E  E  E
|-----------------------------------10-|-----------------------------------------------|
|-13--12-10----------------10-12-13----|-13--12-10----------17p15p13-15p13p12-13p12p10-|
|-----------12-10--9-10-12-------------|-----------12-10--9----------------------------|
|--------------------------------------|-----------------------------------------------|
|--------------------------------------|-----------------------------------------------|
|--------------------------------------|-----------------------------------------------|
|
|                  PM---------------|
|                                                            |-----------3-----------|
|  E   E  E  E  E  E  E  E  E  E  E  E    E   E  E  E  E  E  E  E  E  E  E  E  E  E  E
|--------------------------------------|-----------------------------------------------|
|-17--15----------------------15-17-18-|-17--15-------------20p18p17-18p17p15-17p15p13-|
|--------17-16-14----14-16-17----------|--------17-16-14-------------------------------|
|-----------------17-------------------|-----------------17----------------------------|
|--------------------------------------|-----------------------------------------------|
|--------------------------------------|-----------------------------------------------|


  A5                                                        C5
                                                             PM---------|
   W.                                    +H.                 Q     Q     Q
|--------------------------------------|--------------------------------------|
|--------------------------------------|--------------------------------------|
|--2-----------------------------------|-(2)-----------------5-----5-----5----|
|--2-----------------------------------|-(2)-----------------5-----5-----5----|
|--0-----------------------------------|-(0)-----------------3-----3-----3----|
|--------------------------------------|--------------------------------------|
|
|                  PM---------------|                     PM---------------|
|  E   E  E  E  E  E  E  E  E  E  E  E    E   E  E  E  E  E  E  E  E  E  E  E
|-----------------------------------10-|-----------------------------------10-|
|-13--12-10----------------10-12-13----|-13--12-10----------------10-12-13----|
|-----------12-10--9-10-12-------------|-----------12-10--9-10-12-------------|
|--------------------------------------|--------------------------------------|
|--------------------------------------|--------------------------------------|
|--------------------------------------|--------------------------------------|
|
|                  PM---------------|                     PM---------------|
|  E   E  E  E  E  E  E  E  E  E  E  E    E   E  E  E  E  E  E  E  E  E  E  E
|--------------------------------------|--------------------------------------|
|-17--15----------------------15-17-18-|-17--15----------------------15-17-18-|
|--------17-16-14----14-16-17----------|--------17-16-14----14-16-17----------|
|-----------------17-------------------|-----------------17-------------------|
|--------------------------------------|--------------------------------------|
|--------------------------------------|--------------------------------------|


  G5                                     C5                 G/B
   W.                                     H.                 H.
|--------------------------------------|-----------------------------------------------|
|--------------------------------------|-----------------------------------------------|
|--------------------------------------|--5------------------4-------------------------|
|--5-----------------------------------|--5------------------5-------------------------|
|--5-----------------------------------|--3------------------2-------------------------|
|--3-----------------------------------|-----------------------------------------------|
|
|                  PM---------------|
|                                                            |-----------3-----------|
|  E   E  E  E  E  E  E  E  E  E  E  E    E   E  E  E  E  E  E  E  E  E  E  E  E  E  E
|-----------------------------------10-|-----------------------------------------------|
|-13--12-10----------------10-12-13----|-13--12-10----------17p15p13-15p13p12-13p12p10-|
|-----------12-10--9-10-12-------------|-----------12-10--9----------------------------|
|--------------------------------------|-----------------------------------------------|
|--------------------------------------|-----------------------------------------------|
|--------------------------------------|-----------------------------------------------|
|
|                  PM---------------|
|                                                            |-----------3-----------|
|  E   E  E  E  E  E  E  E  E  E  E  E    E   E  E  E  E  E  E  E  E  E  E  E  E  E  E
|--------------------------------------|-----------------------------------------------|
|-17--15----------------------15-17-18-|-17--15-------------20p18p17-18p17p15-17p15p13-|
|--------17-16-14----14-16-17----------|--------17-16-14-------------------------------|
|-----------------17-------------------|-----------------17----------------------------|
|--------------------------------------|-----------------------------------------------|
|--------------------------------------|-----------------------------------------------|


  A5                                                        C5
                                                             PM---------|
   W.                                    +H.                 Q     Q     Q
|--------------------------------------|--------------------------------------|
|--------------------------------------|--------------------------------------|
|--2-----------------------------------|-(2)-----------------5-----5-----5----|
|--2-----------------------------------|-(2)-----------------5-----5-----5----|
|--0-----------------------------------|-(0)-----------------3-----3-----3----|
|--------------------------------------|--------------------------------------|
|
|                  PM---------------|                     PM---------------|
|  E   E  E  E  E  E  E  E  E  E  E  E    E   E  E  E  E  E  E  E  E  E  E  E
|-----------------------------------10-|-----------------------------------10-|
|-13--12-10----------------10-12-13----|-13--12-10----------------10-12-13----|
|-----------12-10--9-10-12-------------|-----------12-10--9-10-12-------------|
|--------------------------------------|--------------------------------------|
|--------------------------------------|--------------------------------------|
|--------------------------------------|--------------------------------------|
|
|                  PM---------------|                     PM---------------|
|  E   E  E  E  E  E  E  E  E  E  E  E    E   E  E  E  E  E  E  E  E  E  E  E
|--------------------------------------|--------------------------------------|
|-17--15----------------------15-17-18-|-17--15----------------------15-17-18-|
|--------17-16-14----14-16-17----------|--------17-16-14----14-16-17----------|
|-----------------17-------------------|-----------------17-------------------|
|--------------------------------------|--------------------------------------|
|--------------------------------------|--------------------------------------|


  G5                                     C5                 G/B
   W.                                     H.                 H.
|--------------------------------------|-----------------------------------------------|
|--------------------------------------|-----------------------------------------------|
|--------------------------------------|--5------------------4-------------------------|
|--5-----------------------------------|--5------------------5-------------------------|
|--5-----------------------------------|--3------------------2-------------------------|
|--3-----------------------------------|-----------------------------------------------|
|
|                  PM---------------|
|                                                            |-----------3-----------|
|  E   E  E  E  E  E  E  E  E  E  E  E    E   E  E  E  E  E  E  E  E  E  E  E  E  E  E
|-----------------------------------10-|-----------------------------------------------|
|-13--12-10----------------10-12-13----|-13--12-10----------17p15p13-15p13p12-13p12p10-|
|-----------12-10--9-10-12-------------|-----------12-10--9----------------------------|
|--------------------------------------|-----------------------------------------------|
|--------------------------------------|-----------------------------------------------|
|--------------------------------------|-----------------------------------------------|
|
|                  PM---------------|
|                                                            |-----------3-----------|
|  E   E  E  E  E  E  E  E  E  E  E  E    E   E  E  E  E  E  E  E  E  E  E  E  E  E  E
|--------------------------------------|-----------------------------------------------|
|-17--15----------------------15-17-18-|-17--15-------------20p18p17-18p17p15-17p15p13-|
|--------17-16-14----14-16-17----------|--------17-16-14-------------------------------|
|-----------------17-------------------|-----------------17----------------------------|
|--------------------------------------|-----------------------------------------------|
|--------------------------------------|-----------------------------------------------|


  F5
   W.                 +W.
|-------------------|--------------------|
|-------------------|--------------------|
|-------------------|--------------------|
|--3----------------|-(3)----------------|
|--3----------------|-(3)----------------|
|--1----------------|-(1)----------------|
|
|  ~~~~~~~~~~~~~~~~~~~~~~~~~~~~~~~
|  H.       H.         H.       H     Q
|-------------------|----------10----12--|
|-10-------12-------|-13-----------------|
|-------------------|--------------------|
|-------------------|--------------------|
|-------------------|--------------------|
|-------------------|--------------------|
|
|  ~~~~~~~~~~~~~~~~~~~~~~~~~~~~~~~
|  H.       H.         H.       H     Q
|-------------------|----------------15--|
|----------15-------|-17-------18--------|
|-17----------------|--------------------|
|-------------------|--------------------|
|-------------------|--------------------|
|-------------------|--------------------|


  G5
   W.                 +W.
|-------------------|------------------||
|-------------------|-----------------o||
|-------------------|------------------||
|--5----------------|-(5)--------------||
|--5----------------|-(5)-------------o||
|--3----------------|-(3)--------------||
|
|  ~~~~~~~~~~~~~~~~~~~~~~~~~~~~~~~~
|  H.       H.         H.       H.
|-10-------12-------|-13-------15------||
|-------------------|-----------------o||
|-------------------|------------------||
|-------------------|------------------||
|-------------------|-----------------o||
|-------------------|------------------||
|
|  ~~~~~~~~~~~~~~~~~~~~~~~~~~~~~~~~
|  H.       H.         H.       H.
|----------15-------|-17-------19------||
|-18----------------|-----------------o||
|-------------------|------------------||
|-------------------|------------------||
|-------------------|-----------------o||
|-------------------|------------------||



Duration Legend
---------------
W - whole; H - half; Q - quarter; E - 8th; S - 16th; T - 32nd; X - 64th; a - acciaccatura
+ - note tied to previous; . - note dotted; .. - note double dotted
Uncapitalized letters represent notes that are staccato (1/2 duration)
Irregular groupings are notated above the duration line
Duration letters will always appear directly above the note/fret number it represents the
duration for.  Duration letters with no fret number below them represent rests.  Multi-
bar rests are notated in the form Wxn, where n is the number of bars to rest for.  Low
melody durations appear below the staff

Tablature Legend
----------------
 h   - hammer-on
 p   - pull-off
 b   - bend
 pb  - pre-bend
 r   - bend release (if no number after the r, then release immediately)
 /\  - slide into or out of (from/to "nowhere")
 s   - legato slide
 S   - shift slide
 - natural harmonic
[n]  - artificial harmonic
n(n) - tapped harmonic
 ~   - vibrato
 tr  - trill
 T   - tap
 TP  - trem. picking
 PM  - palm muting
\n/  - tremolo bar dip; n = amount to dip
 \n  - tremolo bar down
 n/  - tremolo bar up
/n\  - tremolo bar inverted dip
 =   - hold bend; also acts as connecting device for hammers/pulls
 <> - volume swell (louder/softer)
 x   - on rhythm slash represents muted slash
 o   - on rhythm slash represents single note slash

Misc Legend
-----------
 |  - bar
||  - double bar
||o - repeat start
o|| - repeat end
*|  - double bar (ending)
 :  - bar (freetime)
 $  - Segno
 &  - Coda
Tempo markers -  = BPM(8/16=s8/s16), where s8 = swing 8ths, s16 = swing 16ths

Tap to rate this tab
# A B C D E F G H I J K L M N O P Q R S T U V W X Y Z