Depapepe - Wedding Bell tab

WEDDING BELL by Depapepe


INTRO: E-A-A/Ab-F#m-B
       G#m-C#m-F#m-B


VERSE:
       E               B      C#m             G#m
e|--------------------------------------------4--|
B|---5/7-5-5-4-4-2-2---0----5/7-5-5-4-4-5-5-7----|
G|-4-----------------1----4----------------------|
D|-----------------------------------------------|
A|-----------------------------------------------|
E|-----------------------------------------------|
     A       B     G#m     C#m  A               B
e|---------0---------------------------------------------------|
B|-----------4-----------2-------------------------------------|
G|-1-2-2-2-----1-2-4-4-4------4-4-2-2-1-1-----4-4-2-2-1-1------|
D|-------------------------2--------------4-4-------------4-4--|
A|-------------------------------------------------------------|
E|-------------------------------------------------------------|
       E               B      C#m             G#m
e|--------------------------------------------4--|
B|---5/7-5-5-4-4-2-2---0----5/7-5-5-4-4-5-5-7----|
G|-4-----------------1----4----------------------|
D|-----------------------------------------------|
A|-----------------------------------------------|
E|-----------------------------------------------|
     A       B     G#m     C#m   A       B       E
e|---------0----------------------------------------|
B|-----------4-----------2--------------------------|
G|-1-2-2-2-----1-2-4-4-4---------------2-1----------|
D|-------------------------2---------2-----4-2-1-2--|
A|---------------------------------4----------------|
E|--------------------------------------------------|


REFRAIN:
   A          E
e|---4+-0+----0+--4-5-7\--|
B|---------0+-----5-7-9\--|
G|------------------------|
D|------------------------|
A|------------------------|
E|------------------------|
   A          E
e|---4+-0+----0+--7-5-4\--|
B|---------0+-----9-7-5\--|
G|------------------------|
D|------------------------|
A|------------------------|
E|------------------------|
   A      B      G#m     C#m
e|------------------------------|
B|------------------------------|
G|------------------------------|
D|---------------------------6--|
A|-4-6-7--6-7-9--6-7-9-9-7-9----|
E|------------------------------|
   A               B
e|----------------------------------|
B|-------------------------------7--|
G|-----------6-8-9---------6-8-9----|
D|-----6-7-9---------6-7-9----------|
A|-7-9-------------9----------------|
E|----------------------------------|


CHORUS:
   E                 B
e|-4--4-5-5/7--4-5-5/7-7-7-9--11--|
B|-5--5-7-7/9--5-7-7/9-9-9-10-12--|
G|--------------------------------|
D|--------------------------------|
A|--------------------------------|
E|--------------------------------|
           A              B          G#m      C#m
e|-9-11-11h12-12-12-11-12/14-12-11-9-7-7-7-9-7--|
B|----------------------------------------------|
G|----------------------------------------------|
D|----------------------------------------------|
A|----------------------------------------------|
E|----------------------------------------------|
           A              B          G#m  C#m
e|-9-11-11h12-12-12-11-12/14-12-11-9-7-11-12--|
B|--------------------------------------------|
G|--------------------------------------------|
D|--------------------------------------------|
A|--------------------------------------------|
E|--------------------------------------------|
   A      B       E
e|------5-4----------|
B|----5-----7-5-4-5--|
G|--6----------------|
D|-------------------|
A|-------------------|
E|-------------------|


VERSE:
       E               B      C#m             G#m
e|--------------------------------------------4--|
B|---5/7-5-5-4-4-2-2---0----5/7-5-5-4-4-5-5-7----|
G|-4-----------------1----4----------------------|
D|-----------------------------------------------|
A|-----------------------------------------------|
E|-----------------------------------------------|
     A       B     G#m     C#m   A       B       E
e|---------0----------------------------------------|
B|-----------4-----------2--------------------------|
G|-1-2-2-2-----1-2-4-4-4---------------2-1----------|
D|-------------------------2---------2-----4-2-1-2--|
A|---------------------------------4----------------|
E|--------------------------------------------------|


REFRAIN:
   A          E
e|---4+-0+----0+--4-5-7\--|
B|---------0+-----5-7-9\--|
G|------------------------|
D|------------------------|
A|------------------------|
E|------------------------|
   A          E
e|---4+-0+----0+--7-5-4\--|
B|---------0+-----9-7-5\--|
G|------------------------|
D|------------------------|
A|------------------------|
E|------------------------|
   A      B      G#m     C#m
e|------------------------------|
B|------------------------------|
G|------------------------------|
D|---------------------------6--|
A|-4-6-7--6-7-9--6-7-9-9-7-9----|
E|------------------------------|
   A               B
e|--------------------------------------------------|
B|---------------------------------------------7-7--|
G|-----------6-8-9-----------------6-6-8-8-9-9------|
D|-----6-7-9-----------6-6-7-7-9-9------------------|
A|-7-9-------------9-9------------------------------|
E|--------------------------------------------------|


CHORUS:
   E                 B
e|-4--4-5-5/7--4-5-5/7-7-7-9--11--|
B|-5--5-7-7/9--5-7-7/9-9-9-10-12--|
G|--------------------------------|
D|--------------------------------|
A|--------------------------------|
E|--------------------------------|
           A              B          G#m      C#m
e|-9-11-11h12-12-12-11-12/14-12-11-9-7-7-7-9-7--|
B|----------------------------------------------|
G|----------------------------------------------|
D|----------------------------------------------|
A|----------------------------------------------|
E|----------------------------------------------|
           A              B          G#m  C#m
e|-9-11-11h12-12-12-11-12/14-12-11-9-7-11-12--|
B|--------------------------------------------|
G|--------------------------------------------|
D|--------------------------------------------|
A|--------------------------------------------|
E|--------------------------------------------|
      A                    B
e|---------------------------------------------|
B|-12-12-10-10-9-9-7-7--12-12-10-10-9-9-7-5-7--|
G|---------------------------------------------|
D|---------------------------------------------|
A|---------------------------------------------|
E|---------------------------------------------|
   E                 B
e|-4--4-5-5/7--4-5-5/7-7-7-9--11--|
B|-5--5-7-7/9--5-7-7/9-9-9-10-12--|
G|--------------------------------|
D|--------------------------------|
A|--------------------------------|
E|--------------------------------|
           A              B          G#m      C#m
e|-9-11-11h12-12-12-11-12/14-12-11-9-7-7-7-9-7--|
B|----------------------------------------------|
G|----------------------------------------------|
D|----------------------------------------------|
A|----------------------------------------------|
E|----------------------------------------------|
           A              B          G#m  C#m
e|-9-11-11h12-12-12-11-12/14-12-11-9-7-11-12--|
B|--------------------------------------------|
G|--------------------------------------------|
D|--------------------------------------------|
A|--------------------------------------------|
E|--------------------------------------------|
   A      B       E
e|------5-4----------|
B|----5-----7-5-4-5--|
G|--6----------------|
D|-------------------|
A|-------------------|
E|-------------------|


OUTRO:
   A             B---------------|           E   A-A/Ab-F#m-B-G#m-C#m-F#m-B-E
e|------5-4---------------5--4---|
B|----5-----7-5--4--5--7--7--5---|
G|--6----------------------------|
D|-------------------------------|
A|-------------------------------|
E|-------------------------------|


* This one, I think, is an easier-to-read version without the use of capo
* I'm not sure with the chord pattern but I think it's good enough..:p
* comments and corrections would be very much appreciated
* / - slide up
  \ - slide down
  + - harmonics?
  h - hammer on


NITRAM
07-03-10
10:41 PM
Tap to rate this tab
 
# A B C D E F G H I J K L M N O P Q R S T U V W X Y Z