Song name
# A B C D E F G H I J K L M N O P Q R S T U V W X Y Z

Depeche Mode - Goodbye tab

-------------------------------------------------------------------------------
                             Depeche Mode - Goodbye
-------------------------------------------------------------------------------
Tabbed by:Rodrigo Araya

Here's the video http://www.youtube.com/watch?v=m5uy3fbGrkQ

Tuning: Standard

Main Riff intro, outro & throughout the verses

e|---------------------------------------------------------------------------|
B|---------------------------------------------------------------------------|
G|-------5-------------------------------------------------------------------|
D|-----7---7-5-7-------------------------------------------------------------|
A|--0-------------3-0-3-0----------------------------------------------------|
E|---------------------------------------------------------------------------|

Now I'm pure, now I'm clean
I feel cured and surreal
In you 
    
    G    E    G   Fm
e|-------0---------1---------------------------------------------------------|
B|--3----0----3----1---------------------------------------------------------|
G|--4----1----4----1---------------------------------------------------------|
D|--5----2----5----2---------------------------------------------------------|
A|--5----2----5----2---------------------------------------------------------|
E|-----------------1---------------------------------------------------------|

After the last Fm stroke you are back to the main riff until:

I can dream, I can fly
Now it seems I get by
With you.

*Again

    G    E    G   Fm
e|-------0---------1---------------------------------------------------------|
B|--3----0----3----1---------------------------------------------------------|
G|--4----1----4----1---------------------------------------------------------|
D|--5----2----5----2---------------------------------------------------------|
A|--5----2----5----2---------------------------------------------------------|
E|-----------------1---------------------------------------------------------|


Good goodbye again x2 

    F  C  Dm      Am  
e|--------1------------------------------------------------------------------|
B|--1--1--3------------------------------------------------------------------|
G|--2--0--2-------5----------------------------------------------------------|
D|--3--2--------7---7-5-7----------------------------------------------------|
A|-----3-----0-------------3-0-3-0-------------------------------------------|
E|---------------------------------------------------------------------------|
Tap to rate this tab
# A B C D E F G H I J K L M N O P Q R S T U V W X Y Z