Song name
# A B C D E F G H I J K L M N O P Q R S T U V W X Y Z

Depresszio - A Mi Forradalmunk tab

-------------------------------------------------------------------------------
			     A mi forradalmunk - Depresszió
-------------------------------------------------------------------------------
Tabbed by: deHufter
Email:

Tuning: normal

Intro:
e|--------------------------------------------------------------------------|
B|--------------------------------------------------------------------------|
G|---(6)-(6)-(6)-(6)--------------------------------------------------------|
D|---(6)-(4)-(4)-(4)--lots of times-----------------------------------------|
A|----4---4---4---4---------------------------------------------------------|
E|--------------------------------------------------------------------------|

Verse:
e|--------------------------------------------------------------------------|
B|--------------------------------------------------------------------------|
G|--6-------2---------------------------------------------------------------|
D|--6-------2------4------6-------------------------------------------------|
A|--4-------0------4------6-------------------------------------------------|
E|-----------------2------4-------------------------------------------------|

Chorus:
e|--------------------------------------------------------------------------|
B|--------------------------------------------------------------------------|
G|--6-6-6-6-6-6-4-4-2-2-2-2-2-2---------------------------------------------|
D|--6-6-6-6-6-6-4-4-2-2-2-2-2-2-6-6-4-4-4-4-4-4-2-2-6-6-6-6-7-7-7-7---------|
A|--4-4-4-4-4-4-2-2-0-0-0-0-0-0-6-6-4-4-4-4-4-4-2-2-6-6-6-6-7-7-7-7---------|
E|------------------------------4-4-2-2-2-2-2-2-0-0-4-4-4-4-5-5-5-5---------|

Pre-Chorus:

e|--------------------------------------------------------------------------|
B|--------------------------------------------------------------------------|
G|--2-------8---------------------------------------------------------------|
D|--2---4---8--6------------------------------------------------------------|
A|--0---4---6--6------------------------------------------------------------|
E|------2------4------------------------------------------------------------|

Bridge:
e|--------------------------------------------------------------------------|
B|--------------------------------------------------------------------------|
G|--------------------------------------------------------------------------|
D|--7\6\4/6-------4-6-6-7-----7\6\4/6-----4-7-6-4---------------------------|
A|--5\4\2/4-×2----2-4-4-5-----5\4\2/4-×2--2-5-4-2---------------------------|
E|--------------------------------------------------------------------------|


| /  slide up
| \  slide down
| h  hammer-on
| p  pull-off
| ~  vibrato
| +  harmonic
| x  Mute note
===============================================================================
Tap to rate this tab
# A B C D E F G H I J K L M N O P Q R S T U V W X Y Z