Song name
# A B C D E F G H I J K L M N O P Q R S T U V W X Y Z

Derek And The Dominoes - Bell Bottom Blues Solo tab

t. See http://www.olga.net/faq/ for more information.                     #
#-----------------------------------------------------------------------------#

Date: Wed, 19 Apr 2000 16:49:00 -0400
From: Tiffany A Pourch 
Subject: d/derek_and_the_dominoes/bell_bottom_blues_solo.tab

From Derek and the Dominoes "Layla and Other Assorted Love Songs"
Transcribed by Tiffany Pourch (tpourch@andrew.cmu.edu)

Here is the solo to Bell Bottom Blues.  I have not included any of the
slides because I don't know where they all are.  I'm also not sure about
the middle section of this solo because it goes pretty fast, so if 
anyone figures it out let me know.


E-------10-12----(17)-15---------------(17)-15--------------------------
B-12-13-------13---------(17)-15-13------------(17)-15-13---------------
G-----------------------------------14--------------------14-(11)-9-7---
D---------------------------------------------------------------------9-
A-----------------------------------------------------------------------
E-----------------------------------------------------------------------

E-----------------------------------------------------17-15-------------
B----------------------13----17--17-15----15-------17-------17-15-------
G-(9)-7-5---5-7--12-14----14-----------17----17-17-----------------17---
D---------7-------------------------------------------------------------
A-----------------------------------------------------------------------
E-----------------------------------------------------------------------

E----------------------------------------
B-15-17-15-------15-15-15----------------
G----------17-14----------12-------------
D----------------------------------------
A----------------------------------------
E----------------------------------------
Tap to rate this tab
# A B C D E F G H I J K L M N O P Q R S T U V W X Y Z