Song name
# A B C D E F G H I J K L M N O P Q R S T U V W X Y Z

Descendents - Pep Talk Solo tab

e: Wed, 28 Jan 1998 09:10:17 -0700 (MST)
From: Dan McGuirk 
Subject: TAB: Pep Talk by the Descendents (solo only)

Artist:          Descendents
Song:            Pep Talk (solo)
Album:           ALL
Transcribed by:  Dan McGuirk 

This is the solo to the Descendents song Pep Talk.  You'll
have to listen to the album to get the rhythm.

Please send corrections to mcguirk@indirect.com.

-----------------------------------------------------------------
-----------------------------------------------------------------
-----------------------------------------------------------------
--------------------------------------------8-8-9-9-11-11--------
----------------7-7-9-9-10-10-7-7-9-9-10-10----------------------
--7-7-9-9-10-10--------------------------------------------------

-----------------------------------------------------------------
-----------------------------------------------------------------
---------8-9-8-9^(11)---8^9^8------------------------------------
--8-9-11---------------------------------------------------------
-----------------------------------------------------------------
-----------------------------------------------------------------

-----------------------------------------------------------------
-12-12-10-9----9----9----9^10-9----------------------------------
------------11---11---11--------11-11-9-8-8----------------------
--------------------------------------------9-9-7-7-9------------
-----------------------------------------------------------------
-----------------------------------------------------------------

-----------------------------------------------------------------
-----------------------------------------------------------------
--------------9^(11)-9-8-9^8-8~~~~-------------------------------
--------7---7----------------------9-----------------------------
--7-8-9---9------------------------------------------------------
-----------------------------------------------------------------

-----------------------------------------------------------------
--------------------------------------------10/12-12/10----------
---------------------------------------9/11-------------11/9-----
-----------------------------------------------------------------
----------------7-7-9-9-10-10-7-7-9-9----------------------------
--7-7-9-9-10-10--------------------------------------------------
                                       |____________________|
                                       you may be able to play
                                       this part with bends instead,
                                       but it always sounds horrible
                                       when I try it that way.

-----------------------------------------------------------------
-----------------------------------------------------------------
--8^9^8----------------------------------------------------------
--------9--------------------------------------------------------
-----------------------------------------------------------------
-----------------------------------------------------------------
Tap to rate this tab
 
# A B C D E F G H I J K L M N O P Q R S T U V W X Y Z