Song name
# A B C D E F G H I J K L M N O P Q R S T U V W X Y Z

Deus - Jigsaw You tab

dEUS - Jigsaw You

Tabbed by: Pepijn Hoogendoorn, hoogendoorn161@zonnet.nl

A beautiful song by dEUS. The only part I could decipher was the "I'm thinking
of..." part, so I just wrote down the chords. All suggestions are welcome.

e------------------------------------------------------------------------------
B----------------3----------5-3--------------3------3-5------------------------
G-4-4-4-4-4-4-4-4--4-4-4-4-4----4-4-4-4-4-4-4--4-4-4----4-4-4------------------
D------------------------------------------------------------------------------
A------------------------------------------------------------------------------
E------------------------------------------------------------------------------

e------------------------------------------------------------------------------
B------------------------------------------------------------------------------
G------------------------------------------------------------------------------
D-4-5-7-9--4--4-4s9---9---9-9s4--4--4-4s2--2--2-2s4--4-------------------------
A---------5--5------10--10------5--5------3--3------5--------------------------
E------------------------------------------------------------------------------

e------------------------------------------------------------------------------
B------------------------------------------------------------------------------
G------------------------------------------------------------------------------
D-4-5-7-9--4--4-4s9---9---9-9s4--4--4-4s2--2--2-2------------------------------
A---------5--5------10--10------5--5------3--3---------------------------------
E------------------------------------------------------------------------------

 Fifty six falcon across the old laundry I tasted
e------------------------------------------------------------------------------
B------------------------------------------------------------------------------
G-4-4-4-4-4-4-4-4--6-7---6-7---------------------------------------------------
D-----------------7-7-7-7-7-7--------------------------------------------------
A------------------------------------------------------------------------------
E------------------------------------------------------------------------------

 Jigsaw you how I hate to see this wasted
e------------------------------------------------------------------------------
B--------3---------------------------------------------------------------------
G-4-4-4-4--4-4-4--6-7---6-7----------------------------------------------------
D----------------7-7-7-7-7-7---------------------------------------------------
A------------------------------------------------------------------------------
E------------------------------------------------------------------------------

 I'm thinking of a parallel These lines won't cut but all it takes is
e------------------------------------------------------------------------------
B---------------------------5--------------------------------------------------
G-4-4-4h5p4-4---------------6--------------------------------------------------
D----------------4----4-----7-Repeated-----------------------------------------
A-------------5-5--5-5------7--------------------------------------------------
E---------------------------5--------------------------------------------------

 finding some   way to weld
e------------------------------------------------------------------------------
B-3----------------------------------------------------------------------------
G-4----------------------------------------------------------------------------
D-5-Repeated----4-5-7-9--4--4-4s9---9---9-9s4--4--4-4s2--2--2------------------
A-5---------------------5--5------10--10------5--5------3--3-------------------
E-3----------------------------------------------------------------------------

 Tomorrow
e------------------------------------------------------------------------------
B------------------------------------------------------------------------------
G------------------------------------------------------------------------------
D-4-5-7-9--4--4-4s9---9---9-9s4--4--4-4s2--2--2--------------------------------
A---------5--5------10--10------5--5------3--3---------------------------------
E------------------------------------------------------------------------------

e------------------------------------------------------------------------------
B------------------------------------------------------------------------------
G------------------------------------------------------------------------------
D-4-5-7-9--4--4-4s9---9---9-9s4--4--4-4s2--2--2-2s4-4--------------------------
A---------5--5------10--10------5--5------3--3---------------------------------
E------------------------------------------------------------------------------
Tap to rate this tab
 
# A B C D E F G H I J K L M N O P Q R S T U V W X Y Z