Song name
# A B C D E F G H I J K L M N O P Q R S T U V W X Y Z

Devildriver - End Of The Line tab

-------------------------------------------------------------------------------
			   END OF THE LINE - DevilDriver
-------------------------------------------------------------------------------

Tabbed by: Tyler Greig

Email: gtheleadguitarist@hotmail.com


| /  slide up
| \  slide down
| h  hammer-on
| p  pull-off
| ~  vibrato
| *  harmonic
| x  Mute note
| ph pinch harmonic
| b  bend

Tuning: Drop D, down 1 1/2 steps (B F# B E G# C#)

This bit of the intro is based on [S][H][A][D][E][S]'s tab, which I've made some changes to. 
The rest is all my own work.

Enjoy :)




Intro Part 1

With An Echo Effect On Clean
                  
c#||----------------------------||
g#||----------------------------||
 e||-11----11----12----12-------||
 b||----14----14----14----14----|| *However
f#||----------------------------||Many Times
 b||----------------------------||

Guitar 1                     x2                              x2
c#||---------------------------||------------------------------||
g#||---------------------------||------------------------------||
 e||---------------------------||--11----11----12----12--------||x2
 b||-11-----11-----12----12----||-----14----14----14----14-----||
f#||----14-----14-----14----14-||------------------------------||
 b||---------------------------||------------------------------||

                     
Riff 5                       x3 
c#||---------------------------||---------------------------||
g#||---------------------------||---14----14----15----15----||
 e||---------------------------||------16----16----16----16-||
 b||-11-----11-----12----12----||---------------------------||x4
f#||----14-----14-----14----14-||---------------------------||
 b||---------------------------||---------------------------||
     |. .    . .    . .   . .|
               P.M.
    
Distortion         
|---------------------------------------------------------------------------------|
|---------------------------------------------------------14----------15----------|
|-6-------7-------6-------7-------11----------12-------------16-16-16----16-16-16-|
|---9-9-9---9-9-9---9-9-9---9-9-9----14-14-14----14-14-14-------------------------|x2
|---------------------------------------------------------------------------------|
|---------------------------------------------------------------------------------|
______________________________________________________________________

Intro Part 2 (Weird time signature- don't get lost :P )
Played quickly
|--------------|  |-------------|  |-------------|  |-------------|
|--------------|  |-------------|  |-------------|  |-------------|
|--------------|  |-------------|  |-------------|  |-------------|
|--------------|  |-------------|  |-------------|  |-------------|
|------7---6p3-|  |-----5---4p2-|  |-----7---6p3-|  |-----5---4p2-|
|--333-7-3-6p3-|x4|-222-5-3-4p2-|x4|-333-7-3-6p3-|x4|-222-5-3-4p2-|x4
PM ...   .          ...   .          ...   .          ...   .

 Guitar 1
|----------------------------------------------------------------|
|----------------------------------------------------------------|
|----------------------------------------------------------------|
|----------------------------------------------------------------|
|-----7-7-6-3---------7-7-6-3---------5-5-4-2---------5-5-4-2----|
|-3-3---------6b--3-3---------6b--2-2---------4b--2-2---------4b-|x2

On the repeat, the second guitar harmonizes with:
|----------------------------------------------------------------|
|----------------------------------------------------------------|
|----------------------------------------------------------------|
|-----7-7-6-3---------7-7-6-3---------5-5-4-2---------5-5-4-2----|
|----------------------------------------------------------------|
|-3-3---------6b--3-3---------6b--2-2---------4b--2-2---------4b-|

|---------------------|
|---------------------|
|---------------------|
|---------------------|
|-00--00--------------|
|-00--00--12\\\\\\\\0-|
  ..  ..   ^Huuuuuuge, slow slide, picking all the way down
_____________________________________________________________________

Verse
|-------------------------------------------------------|
|-------------------------------------------------------|
|-------------------------------------------------------|
|-------------------------------------------------------|
|-5-------------3-------------1-------------1---1/2---2-|
|-5p0-0-0-0-0-0-3p0-0-0-0-0-0-1p0-0-0-0-0-0-1-0-1/2-0-2-|x4
PM    . . . . .     . . . . .     . . . . . 

Prechorus
|-----------------------------------------------------|
|-----------------------------------------------------|
|-----------------------------------------------------|
|-----------------------------------------------------|
|-----------------------------------------------------|
|-3b-0-1-2b-0-1-3b-0-1-2b-0-1-3b-0-1-2b-0-1-3b-0-1-2b-|
   Some    things are    best   just   left   un     said!   

Chorus (END OF THE LINE)
|-----------------------------------------------------|
|-----------------------------------------------------|
|-----------------------------------------------------|
|-----2-----3-----2-----3-----2-----3--8-8-8/10-10-10-|
|-0-0-2-0-0-3-0-0-2-0-0-3-0-0-2-0-0-3--8-8-8/10-10-10-|
|-0-0-2-0-0-3-0-0-2-0-0-3-0-0-2-0-0-3--8-8-8/10-10-10-|x2
PM. .   . .   . .   . .   . .   . . 

Chorus
|----------------------------------------------------|
|----------------------------------------------------|
|----------------------------------------------------|
|-------------------------------------8-8-8/10-10-10-|
|-------------------------------------8-8-8/10-10-10-|
|-000-2-000-3-000-2-000-3-000-2-000-3-8-8-8/10-10-10-|
PM...   ...   ...   ...   ...   ...


Intro part 2
Verse
Prechorus
Chorus


Bridge (All riffs in order)
|-----------------------------------------------------------|
|-----------------------------------------------------------|
|-----------------------------------------------------------|
|---------9-8-9-8---------8-9-8-9---------9-8-9-8--10-9-8-7-|
|-6-6-------------6-6-------------6-6---------------9-8-7-6-|
|-6-6-666---------6-6-666---------6-6-666----------10-9-8-7-|
PM    ...             ...             ...

(Guitar 2 harmony in brackets-11s and 12s, not 1s and 2s)
|--------------------------------------------------------------|
|--------------------------------------------------------------|
|--------------------------------------------------------------|
|---------6-5-6-5---------5-6-5-6----------8-8-8-8-8-9-9-9-9-9-|
|-3-3-------------3-3-------------3-3----(11111111111212121212)|
|-3-3-333---------3-3-333---------3-3-333----------------------|
PM    ...             ...             ...

|-----------------------------------------------------------|
|-----------------------------------------------------------|
|-----------------------------------------------------------|
|---------9-8-9-8---------8-9-8-9---------9-8-9-8--10-9-8-7-|
|-6-6-------------6-6-------------6-6---------------9-8-7-6-|
|-6-6-666---------6-6-666---------6-6-666----------10-9-8-7-|
PM    ...             ...             ...

|--------------------------------------------------------------|
|--------------------------------------------------------------|
|--------------------------------------------------------------|
|---------6-5-6-5---------5-6-5-6----------8-8-8-8-8-9-9-9-9-9-|
|-3-3-------------3-3-------------3-3----(11111111111212121212)|
|-3-3-333---------3-3-333---------3-3-333----------------------|
PM    ...             ...             ...

|-----------------------------------------------------|
|-----------------------------------------------------|
|-----------------------------------------------------|
|-------8-9---------8-9-8-9-------8-9---8888/10101010-|
|---------------------------------------8888/10101010-|
|-5-6-0-----0-5-6-0---------5-6-0-----0-8888/10101010-|
PM    .     .     .             .     .

|------------------------------------------------|
|------------------------------------------------|
|------------------------------------------------|
|------10ph-------10ph-------10ph--8888/10101010-|
|----------------------------------8888/10101010-|
|-3b-0-----0-3b-0-----0-3b-0-----0-8888/10101010-|


|-------------------------------------------------------------|
|-------------------------------------------------------------|
|-------------------------------------------------------------|
|--5-6------------5-6---8-9-8-9--5-6------------8888/10101010-|
|--5-6---8-9-8-9--5-6------------5-6---8-9-8-9--8888/10101010-|
|--5-6-0-8-9-8-9--5-6-0----------5-6-0-8-9-8-9--8888/10101010-|
PM     . . . . .      .              . . . . .

|------------------------------------------------|
|------------------------------------------------|
|------------------------------------------------|
|------10ph-------10ph-------10ph--8888/10101010-|
|----------------------------------8888/10101010-|
|-3b-0-----0-3b-0-----0-3b-0-----0-8888/10101010-|

Chorus (first part)

|--------|
|--------|
|--------|
|--------|
|-00--00-|
|-00--00-|
PM..  ..

Verse
Prechorus
Chorus

And you're done :)

============================================================================
Tap to rate this tab
# A B C D E F G H I J K L M N O P Q R S T U V W X Y Z