Devildriver - Black Soul Choir tab

Devildriver
Black Soul Choir
2011 Album BEAST

Legend:
\-Slide up
/-Slide down
~-Hold note
h-Hammer on
p-Pull off
b-Bend
r-Return
*-Palm mute



e|---------------------------------------------------------------------------|
B|---------------15-------------10-11--------15-------------10h11p10---------|
G|-------10-12-12--12---10-12-12-----10-12-12--12---10-12-12-----------------|
D|---------------------------------------------------------------------------|
A|---------------------------------------------------------------------------|
D|1/12-----------------------------------------------------------------------|


e|---------------------------------------------------------------------------|
B|---------------------------------------------------------------------------|
G|9p7-7-7-7-9p7-9p7---10p8-8-8-8-10p8-10p8---12p10-10-10-10-12p10-12p10------|
D|--- * * *--------------- * * * ------------------ *  *  * -----------------|
A|---------------------------------------------------------------------------|
D|---------------------------------------------------------------------------|


e|---------------------------------------------------------------------------|
B|-------10h12/15--15h17p15\14-/17h19p17\16/17h19p17-/19h21p19\18/19h21p19---|
G|12p10p9--------------------------------------------------------------------|
D|---------------------------------------------------------------------------|
A|---------------------------------------------------------------------------|
D|---------------------------------------------------------------------------|


e|---------------------------------19----------------------------------19----|
B|/21h23p21\20/21h23p21~---17-19-19--17-17/19-19--18-18/20-20--17-19-19--19--|
G|---------------------------------------------------------------------------|
D|---------------------------------------------------------------------------|
A|---------------------------------------------------------------------------|
D|---------------------------------------------------------------------------|

                                          *Repeat till end of song*
e|------------------------------|---------------------------------------------|
B|21-19-19-19--19-17-17-17/14~--|-11-13-15-15~--11-13-15b15r13~--11-13-15-15~-|
G|------------------------------|---------------------------------------------|
D|------------------------------|---------------------------------------------|
A|------------------------------|---------------------------------------------|
D|------------------------------|---------------------------------------------|


e|---------------|-----------------------------------------------------------|
B|11-13-15b17r13~|-----------------------------------------------------------|
G|---------------|-----------------------------------------------------------|
D|---------------|-----------------------------------------------------------|
A|---------------|-----------------------------------------------------------|
D|---------------|-----------------------------------------------------------|
Tap to rate this tab
 
# A B C D E F G H I J K L M N O P Q R S T U V W X Y Z