Devildriver - Pray For Villains tab

-----------------------------------------------------------------------------
		                       Pray for Villains - DevilDriver
-----------------------------------------------------------------------------
Tabbed by: 
Email:Tuning: Drop C (CGCFAD)

Gtr. 1
e|--------------------------------------------------------------------------|
B|--------------------------------------------------------------------------|
G|--------------------------------------------------------------------------|
D|--------------------------------------------------------------------------|
A|--------------------------------------------------------------------------|
E|-0--0-0-0-5-0--0-0-0-0-5h6p5s5-0--0-0-0-6-0--0-0-0-0--5h6p5s5-------------|

e|--------------------------------------------------------------------------|
B|-------------------------------8-8-8-8~~8-8-8-8-6-6-6-6-9-9-9-9-----------|
G|-------------------------------7-7-7-7~~7-7-7-7-5-5-5-5-8-8-8-8-----------|
D|-------------------------------5-5-5-5~~5-5-5-5-3-3-3-3-6-6-6-6-----------|
A|-------------------------------5-5-5-5~~5-5-5-5-3-3-3-3-6-6-6-6-----------|
E|-0--0-0-0-7-0--0-0-0-0-5h6p5s5-5-5-5-5~~5-5-5-5-3-3-3-3-6-6-6-6-----------|

(2nd time is palm muted)
e|--------------------------------------------------------------------------|
B|--------------------------------------------------------------------------|
G|--------------------------------------------------------------------------|
D|--------------------------------------------------------------------------|
A|--------------------------------------------------------------------------|
E|-0--0-0-0-5-0--0-0-0-0-5h6p5s5-0--0-0-0-6-0--0-0-0-0--5h6p5s5-------------|

e|--------------------------------------------------------------------------|
B|-------------------------------13-13-13-13~~-13-13-13-13-11-11-11-11------|
G|-------------------------------12-12-12-12~~-12-12-12-12-10-10-10-10------|
D|-------------------------------10-10-10-10~~-10-10-12-10-8--8--8--8-------|
A|-------------------------------10-10-10-10~~-10-10-10-10-8--8--8--8-------|
E|-0--0-0-0-7-0--0-0-0-0-5h6p5s5-10-10-10-10~~-10-10-10-10-8--8--8--8-------|

e|------------------|
B|-9-9-9-9----------|
G|-8-8-8-8----------|
D|-6-6-6-6----------|
A|-6-6-6-6----------|
E|-6-6-6-6----------|
Tap to rate this tab
 
# A B C D E F G H I J K L M N O P Q R S T U V W X Y Z