Song name
# A B C D E F G H I J K L M N O P Q R S T U V W X Y Z

Devin Townsend Project - Ki tab

"Ki"
by "Devin Townsend"
from "Ki" (2009)
Hevy Devy Records

This isn't the solo, it's just the theme/riff from later in the song.
This is directly from Hevysyl_rob's Guitar Pro file, so all credit goes to you, sir, for 
wonderful contribution.

Tabbed by: fenderarmy
Email: s3sso@hotmail.com

Tuning: CGCGCE (Open C)

E|---------------------------------------------------------------------------|
c|------------------------12--16--14--12--11---------------------------------|
G|--------------------12----------------------12-----------------------------|
C|-------------12--16-----------------------------14--11---------------------|
G|---------12---------------------------------------------12-----------------|
C|-12--16-----------------------------------------------------14--11---------|

E|---------------------------------------------------------------------------|
c|---------------------7--11--9--7--6----------------------------------------|
G|------------------7------------------7-------------------------------------|
C|-----------7--11------------------------9--6-------------------------------|
G|--------7-------------------------------------7----------------------------|
C|-7--11-------------------------------------------9--6----------------------|

E|----------------------------------------------------------------------------|
c|-------------------2--6--4--2--1--------------------------------------------|
G|----------------2-----------------2-----------------------------------------|
C|----------2--6-----------------------4--1-----------------------------------|
G|-------2-----------------------------------2--------------------------------|
C|-2--6-----------------------------------------4-----------------------------|

E|---------------------------------------------------------------------------|
c|-------------------1--4/7--3-----------------------------------------------|
G|----------------2-------------5--------------------------------------------|
C|----------1--4-------------------7--3--------------------------------------|
G|-------2-------------------------------5-----------------------------------|
C|-1--4-------------------------------------7--------------------------------|

E|---------------------------------------------------------------------------|
c|-------------------3--7/11--7----------------------------------------------|
G|----------------5--------------9-------------------------------------------|
C|----------3--7--------------------11--7------------------------------------|
G|-------5---------------------------------9---------------------------------|
C|-3--7---------------------------------------11-----------------------------|

E|---------------------------------------------------------------------------|
c|---------------------7--11/15--11------------------------------------------|
G|------------------9----------------13--------------------------------------|
C|-----------7--11-----------------------15--11------------------------------|
G|--------9--------------------------------------13--------------------------|
C|-7--11---------------------------------------------15----------------------|

E|---------------------------------------------------------------------------|
c|-------------------------11--15/19--15-------------------------------------|
G|---------------------13-----------------17---------------------------------|
C|-------------11--15-------------------------19--15-------------------------|
G|---------13-----------------------------------------17---------------------|
C|-11--15-------------------------------------------------19-----------------|

E|---------------------------------------------------------------------------|
c|-------------------------15--17--19----------------------------------------|
G|---------------------17----------------------------------------------------|
C|-------------15--19--------------------------------------------------------|
G|---------17----------------------------------------------------------------|
C|-15--19--------------------------------------------------------------------|

Enjoy the tab, comment and rate, somebody please, tab the rest of this song, and thanks 
Hevysyl_rob, this is all yours!
Tap to rate this tab
 
# A B C D E F G H I J K L M N O P Q R S T U V W X Y Z