Song name
# A B C D E F G H I J K L M N O P Q R S T U V W X Y Z

Devin Townsend Project - Kawaii tab

-----------------------------------------------------------------------------
	        Kawaii - The Devin Townsend Project (Ghost)
-----------------------------------------------------------------------------
Tabbed by: TP500
Email:

Tuning: Open D (DADF#AD)


This is the first few chords of the song. Fart around with the rhythm as you want;
listen to the song and it's pretty easy to discern where these chords go.

D|--3------0------0------------------------------------------|
A|--0------0------0------------------------------------------|
F|--3------0------0------------------------------------------|
D|--2------4------6------------------------------------------|
A|--0------4------X------------------------------------------|
D|--0------4------2------------------------------------------|

After the barred chord on the 4th is played after a couple verses, comes this little
part. I'm not sure if Devin plays it with the octave on the F string, but if you're playing
alone I think it sounds a little fancier, and hey, why try to clone a musician?

D|--0------0------0------------------------------------------|
A|--0------0------0------------------------------------------|
F|--8------10-----7------------------------------------------|
D|--X------X------X------------------------------------------|
A|--5------7------4------------------------------------------|
D|--0------0------0------------------------------------------|

"Arrival, new arrival"

D|--0------0------------------------------------------------|
A|--7------4------------------------------------------------|
F|--0------0------------------------------------------------|
D|--7------4------------------------------------------------|
A|--5------2------------------------------------------------|
D|--0------0------------------------------------------------|

That's pretty much it. There's a couple tiny "chords" just before the pause to the
verses again. but I'm pretty sure they're just totally open chords. Nevertheless, these are
the main chords. Play around with it; the song is beautiful. Now to go back to 
Deconstruction and wish someone had the balls to tab it.

Any comments or changes or anything crucial I've missed, please message me and I'll fix
it ASAP. Enjoy!
Tap to rate this tab
# A B C D E F G H I J K L M N O P Q R S T U V W X Y Z