Devotchka - How It Ends tab

I was just screwing around with my guitar, and I got a little basic version
down for you... It might not be on the right key, and I'm a little too lazy
to find out if it is or not... I'm sure it will help you anyway. :)


~~~~~~~~~~~~~~~~~~~~~~~~~~~~~~~~~~~~~~~~~~~~~~~~~~~~~~~~~~~~~~~~~~~~~~~~~

e ---15----------12----------13------15----------12----------13------|
b -------12--13------12--13------12------12--13------12--13------12--|
g -------------------------------------------------------------------|
d -------------------------------------------------------------------|
a -------------------------------------------------------------------|
e -------------------------------------------------------------------|


e ---13----------------------12------13----------------------12------|
b -------12--13--15--12--13------12------12--13--15--12--13------12--|
g -------------------------------------------------------------------|
d -------------------------------------------------------------------|
a -------------------------------------------------------------------|
e -------------------------------------------------------------------|

(just keep repeating these 2 blocks together)

~~~~~~~~~~~~~~~~~~~~~~~~~~~~~~~~~~~~~~~~~~~~~~~~~~~~~~~~~~~~~~~~~~~~~~~~~

Have fun showing it off to your friends! :)

~Omar
Tap to rate this tab
 
# A B C D E F G H I J K L M N O P Q R S T U V W X Y Z