Song name
# A B C D E F G H I J K L M N O P Q R S T U V W X Y Z

Dewey Cox - Walk Hard tab

Chorus:

E|-----------------------33---33---33---33---33---33---33---33----------------------|
B|-----------------------33---33---33---33---33---33---33---33---22---22------------|
G|---44---44---44---44---22---22---22---22---00---00---00---00---22---22------------|
D|---44---44---44---44-0---------0-----------00---00---00---00---22---22---44---44--|
A|-2-22---22-2-22---22------0---------0------22---22---22---22-0----0------44---44--|
E|------2---------2------------------------3-33-3-33-3-33-3-33-----------2-22-2-22--| 




Verse:
 
       E                         A         E 
I been scorned and slandered and ridiculed too
 
      D                      G          D 
And I struggled every day my whole life through 

        E                       A         E 
Seen my share of the worst this world can give 

      F# 
But I still got a dream and a burning rage to live 



Solo:

E|---------------------------------------------------------------|
B|---------------------------------------------------------------|
G|---------------------------------------------------------------|
D|---------------------------------------------------------------|
A|---------------------2--4--5--2h4p2----------------------------|
E|-3-2-0--------0-2-3--------------------------------------------|

E|---------------------------------------------------------------|
B|---------------------------------------------------------------|
G|---------------------------------------------------------------|
D|---------------------------------------------------------------|
A|--------2--4--5--7---------------------------------------------|
E|-0-2-3---------------------------------------------------------|
Tap to rate this tab
# A B C D E F G H I J K L M N O P Q R S T U V W X Y Z