Song name
# A B C D E F G H I J K L M N O P Q R S T U V W X Y Z

Dewey Cox - Walk Hard tab

I haven't seen a good tab for this yet, so I'll just post mine.

Intro:
|-------------------------------------------------|
|-------------------------------------------------|
|-------------------------------------------------|
|----------------------------0h1h4b---0-----------|
|--2-4-4b-2---2h4b-4-2---2-4------------2-4-------|
|-------------------------------------------------|

Verse:
Walk hard, Hard, Down life's, Rocky road
      Bm    D           G            A     F#

Walk bold, Hard, Its my creed, My code
      Bm    D           G            A     F#

Chorus:
I've been sworn and slandered and ridiculed too
            E                         A      E

Had to struggle everyday my whole life through
        D                      G          D


Seen my share of the worse that this world can give
            E                         A         E


But I still got a dream and a burning rage to live
       F#     

Verse:
Walk hard, Hard, When they say, You're all done
      Bm    D               G               A     F#

Walk bold, Hard, Though they say, You're not the one
      Bm    D                 G                   A     F#

Chorus:
Even if you've been told time and time again
            E                      A      E


That you're always gonna lose and you're never gonna win
            E                              A          E


Gotta keep that vision in your mind's eye
       E                         A     E

When you're standing on top of a mountain high
       F#

Bridge:
Here I usually just solo around on the minor pentatonic starting on the second fret, the scale is:

|--------------------------------2--5------|
|---------------------------2--5-----------|
|--------------------2-4-4b----------------|
|--------------2h3h4-----------------------|
|--------2h3h4-----------------------------|
|--2--5------------------------------------|

(Play solo throughout)
You know when I was a boy
Folks used to say to me
"Slow down Dewey, don't walk so hard"
And I used to tell them
Life's a race, and I'm in it to win it
And I'll walk as damn hard as I please
How do I walk boys?

{HARD}

And the last bit goes same as the first! Thanks all, D-Baccs out.
Tap to rate this tab
# A B C D E F G H I J K L M N O P Q R S T U V W X Y Z