Song name
# A B C D E F G H I J K L M N O P Q R S T U V W X Y Z

Dexter Freebish - My Madonna tab

-------------------------------------------------------------------------------
                          My Maddona - Dexter Freebish
-------------------------------------------------------------------------------
Tabbed by: Christopher Bendrell
Email: Chrisbend24@Yahoo.com 

Tuning: Standard

Intro/verse 1 (clean)
e|-------------------------------------------------------------------|
B|-------------------------------------------------------------------|
G|-------------------------------------------------------------------|  X2
D|-------------------------------------------------------------------| 
A|-5-5-5-5-5-5-5-5-5-5-5-5-5-5-5-5-5-5-5-5-5-3-3-3-3-4-4-4-4-5-5-5-5-|
E|-------------------------------------------------------------------|  
   * * * * * * * * * * * * * * * * * * * * * * * * * * * * * * * * * 

Pre Chorus (Dist.)
e|-----------------------------------------|
B|-----------------------------------------|
G|-----------------------------------------|
D|-3-3--5-5------------3-3--5-5--9-9-7-7-7-|
A|-1-1--3-3--3-3--3-3--1-1--3-3--7-7-5-5-5-|
E|-----------1-1--1-1----------------------|

Chorus (Dist.)
e|-------------------------------------------------------------------------------------------|
B|-------------------------------------------------------------------------------------------|
G|--------3-3xx4-4xxxx5-5xx-------3-3xx4-4xxxx5-5xx-------3-3xx4-4xxxx5-5-------3-3--8-8--3-3|
D|-3-3xxxx3-3xx4-4xxxx5-5xx3-3xxxx3-3xx4-4xxxx5-5xx3-3xxxx3-3xx4-4xxxx5-5--3-3--3-3--8-8--3-3|
A|-3-3xxxx1-1xx2-2xxxx3-3xx3-3xxxx1-1xx2-2xxxx3-3xx3-3xxxx1-1xx2-2xxxx3-3--3-3--1-1--6-6--1-1|  
E|-1-1xxxx-----------------1-1xxxx-----------------1-1xxxx-----------------1-1---------------| 

Verse 2 (clean)

e|-------------------------------------------------------------------|
B|-------------------------------------------------------------------|
G|-------------------------------------------------------------------|  X2
D|-------------------------------------------------------------------| 
A|-5-5-5-5-5-5-5-5-5-5-5-5-5-5-5-5-5-5-5-5-5-3-3-3-3-4-4-4-4-5-5-5-5-|
E|-------------------------------------------------------------------|  
   * * * * * * * * * * * * * * * * * * * * * * * * * * * * * * * * * 

Pre Chorus (Dist.)
e|-----------------------------------------|
B|-----------------------------------------|
G|-----------------------------------------|
D|-3-3--5-5------------3-3--5-5--9-9-7-7-7-|
A|-1-1--3-3--3-3--3-3--1-1--3-3--7-7-5-5-5-|
E|-----------1-1--1-1----------------------|

Chorus (Dist.)
e|-------------------------------------------------------------------------------------------|
B|-------------------------------------------------------------------------------------------|
G|--------3-3xx4-4xxxx5-5xx-------3-3xx4-4xxxx5-5xx-------3-3xx4-4xxxx5-5-------3-3--8-8--3-3|
D|-3-3xxxx3-3xx4-4xxxx5-5xx3-3xxxx3-3xx4-4xxxx5-5xx3-3xxxx3-3xx4-4xxxx5-5--3-3--3-3--8-8--3-3|
A|-3-3xxxx1-1xx2-2xxxx3-3xx3-3xxxx1-1xx2-2xxxx3-3xx3-3xxxx1-1xx2-2xxxx3-3--3-3--1-1--6-6--1-1|  
E|-1-1xxxx-----------------1-1xxxx-----------------1-1xxxx-----------------1-1---------------| 

Bridge (Dist.)
e|-------------------------------------------
B|-------------------------------------------
G|------3--------3--------3------------------
D|--3--3-----3--3-----3--3-------------------
A|-3--1--3--3--1--3--3--1--3-----------------
E|1--------1--------1---------1-2-3-4-5-6-7-8

During the solo just play the chorus
e|-------------------------------------------------------------------------------------------|
B|-------------------------------------------------------------------------------------------|
G|--------3-3xx4-4xxxx5-5xx-------3-3xx4-4xxxx5-5xx-------3-3xx4-4xxxx5-5-------3-3--8-8--3-3|
D|-3-3xxxx3-3xx4-4xxxx5-5xx3-3xxxx3-3xx4-4xxxx5-5xx3-3xxxx3-3xx4-4xxxx5-5--3-3--3-3--8-8--3-3|
A|-3-3xxxx1-1xx2-2xxxx3-3xx3-3xxxx1-1xx2-2xxxx3-3xx3-3xxxx1-1xx2-2xxxx3-3--3-3--1-1--6-6--1-1|  
E|-1-1xxxx-----------------1-1xxxx-----------------1-1xxxx-----------------1-1---------------|

Chorus (Dist.)
e|-------------------------------------------------------------------------------------------|
B|-------------------------------------------------------------------------------------------|
G|--------3-3xx4-4xxxx5-5xx-------3-3xx4-4xxxx5-5xx-------3-3xx4-4xxxx5-5-------3-3--8-8--3-3|        
D|-3-3xxxx3-3xx4-4xxxx5-5xx3-3xxxx3-3xx4-4xxxx5-5xx3-3xxxx3-3xx4-4xxxx5-5--3-3--3-3--8-8--3-3|
A|-3-3xxxx1-1xx2-2xxxx3-3xx3-3xxxx1-1xx2-2xxxx3-3xx3-3xxxx1-1xx2-2xxxx3-3--3-3--1-1--6-6--1-1|  
E|-1-1xxxx-----------------1-1xxxx-----------------1-1xxxx-----------------1-1---------------| 

e|-------------------------------------------------------------------------------------------|
B|-------------------------------------------------------------------------------------------|
G|--------3-3xx4-4xxxx5-5xx-------3-3xx4-4xxxx5-5xx-------3-3xx4-4xxxx5-5-------3-3--8-8--3-3|        
D|-3-3xxxx3-3xx4-4xxxx5-5xx3-3xxxx3-3xx4-4xxxx5-5xx3-3xxxx3-3xx4-4xxxx5-5--3-3--3-3--8-8--3-3|
A|-3-3xxxx1-1xx2-2xxxx3-3xx3-3xxxx1-1xx2-2xxxx3-3xx3-3xxxx1-1xx2-2xxxx3-3--3-3--1-1--6-6--1-1|  
E|-1-1xxxx-----------------1-1xxxx-----------------1-1xxxx-----------------1-1---------------| 

Outro
e|-------------------------------------------------------|
B|-------------------------------------------------------|
G|------3-3--8-8-3-3-------3-3--8-8-3-3------------------|
D|-3-3--3-3--8-8-3-3--3-3--3-3--8-8-3-3-----------------3|
A|-3-3--1-1--6-6-1-1--3-3--1-1--6-6-1-1-----------------3|
E|-1-1----------------1-1---------------1-2-3-4-5-6-7-8-1|


| *  Palm Mute
| /  slide up
| \  slide down
| h  hammer-on
| p  pull-off
| ~  vibrato
| +  harmonic
| x  Mute note
===============================================================================



Tap to rate this tab
 
# A B C D E F G H I J K L M N O P Q R S T U V W X Y Z