Diana Krall - Cry Me A River tab

Album Info:
-------------------------------------
 Song:    Cry Me a River(Solo)
 Artist:  Diana Krall
 Album:   The Look of Love
-------------------------------------
Transcribed by: Lionel Yeo(SG)


e|--------------------------------------------------------------------------|
B|---------------------12h13-----------------14-14h15---12------------------|
G|-12-9-11-12--9-11-12---------9-11-12--9-11--------------12----------------|
D|----------------------------------------------------------10--------------|
A|--------------------------------------------------------------------------|
E|--------------------------------------------------------------------------|

e|-----10/12-10h12-8/10--7-----12-13-12-13-12-13-10/12-12-------------------|
B|---8-------------------7--12----------------------------------------------|
G|-9---------------------7--------------------------------------------------|
D|--------------------------------------------------------------------------|
A|--------------------------------------------------------------------------|
E|--------------------------------------------------------------------------|

e|--------------------------------------------------------------------------|
B|-b10-10--8-10-8-10-8-10-8-10-8-10h12--------------------------------------|
G|--------------------------------------9-----------------------------------|
D|--------------------------------------------------------------------------|
A|--------------------------------------------------------------------------|
E|--------------------------------------------------------------------------|

e|--------------------------------12--------10------------------------------|
B|---------------------------10/12----12p10--------12-----------------------|
G|-------11-12----9-11-11/12------------------12-----12---------------------|
D|--------------9---------------------------------------9-------------------|
A|--------------------------------------------------------------------------|
E|--------------------------------------------------------------------------|
Tap to rate this tab
 
# A B C D E F G H I J K L M N O P Q R S T U V W X Y Z