Song name
# A B C D E F G H I J K L M N O P Q R S T U V W X Y Z

Dickies - Im Ok Youre Ok tab

Band - The Dickies
Song - I'm OK You're OK
Tabbed By : SumFX (Tyler Freear)

Im suprised there are hardly any tabs for the Dickies!
So I am going to start tabbing them!

I was even nice enough to figure out the chorus keyboard!

This is a very easy song so have fun with it.

Note! - This is old Punk Rock so Barre Chords are recommended
but is sounds fine with just 5ths (powerchords)

Intro
|------------------|-----------|
|------------------|-----------|
|-9999--------7777-|-----------|
|-9999--7777--7777-|-7-7-7-7-7-|
|-7777--7777--5555-|-5-0-5-0-5-|
|-------5555-------|-----------|

Verse (Strumming is easy to figure out)
|----------------|
|----------------|
|-9-------7------|
|-9---7---7---9--|
|-7---7---5---9--|
|-----5-------7--|

Chorus         Chorus for the keyboard transcribed for guitar!!!
|------------| |-----------------|-----------------|
|------------| |-----5-----5-----|-----7-----7-----|
|------------| |-5h6---5h6---5h6-|-7h8---7h8---7h8-|
|--7-----9---| |-----------------|-----------------|
|--7-----9---| |-----------------|-----------------|
|--5-----7---| |-----------------|-----------------|

The Structure is easy to grasp but if you have problems please - 
comment and i will fix that for you.

Rate & Comments would be appriciated
Tap to rate this tab
# A B C D E F G H I J K L M N O P Q R S T U V W X Y Z