Song name
# A B C D E F G H I J K L M N O P Q R S T U V W X Y Z

Dickies - Killer Klowns tab

Killer Klowns From Outer Space
The Dickies

There wasn't a tab for this, so I had to do it.


Intro/ Chorus Riff

e|------------------------------------------------------------------|
B|-8-7-6h7p6--------------------------------------------------------|
G|-----------8-7-6-8----8-8-7---------------------------------------|
D|-------------------6--6-------------------------------------------|
A|------------------------------------------------------------------|
E|------------------------------------------------------------------|

Verse 1 and 2 Fill

e|-8---------12-10-8----------12-10-8---|
B|--------11---------------11-----------|
G|---8-10-------------8-10--------------|
D|--------------------------------------|
A|--------------------------------------|
E|--------------------------------------|

Pre Solo Riff

e|------------------------------------|
B|------------------------------------|
G|--5---6-7--8-9--10-11----12---------|
D|--5---6-7--8-9--10-11----12---------|
A|--3---4-5--6-7--8--9-----10---------|
E|------------------------------------|


SOLO!!!

e|-8-7-6h7p6-------------------------------------------------|
B|-----------8-7-6-8-8-7-6h7p7-----------/8--------/8--------|
G|-----------------------------8-7-6-8------6-6-7-----6-6-7--|
D|-----------------------------------------------------------|
A|-----------------------------------------------------------|
E|-----------------------------------------------------------|

e|-----------------------------|
B|-------------------6-7-8-7-6-|
G|-------------6-7-8-----------|
D|-------6-7-8-----------------|   Play the solo twice
A|-6-7-8-----------------------|
E|-----------------------------|


Post Solo Riff

e|--------------------------------------|
B|-10-9-8h9p8---------------------------|
G|------------10-9-8-10----10-10-9------|
D|----------------------8--8------------| Play three times
A|--------------------------------------|
E|--------------------------------------|


Verse 3 Fill

e|-10----------14-12-10----------14-12-10--|
B|----------13----------------13-----------|
G|----10-12-------------10-12--------------|
D|-----------------------------------------|
A|-----------------------------------------|
E|-----------------------------------------|


Play Post Solo Riff til Fade
and That's it!
Those are all the riffs needed to play this great song
Tap to rate this tab
# A B C D E F G H I J K L M N O P Q R S T U V W X Y Z