Song name
# A B C D E F G H I J K L M N O P Q R S T U V W X Y Z

Dicta License - Ang Ating Araw tab

I hope U all enjoy this tab. any questions or comments feel free 2 message me raizenith24@yahoo.com.

TUNING: E-A-D-G-B-E
EFFECTS: Distortion

INTRO:

E|-----------------------------x/----|
B|-----------------------------------|
G|--3/5---5~~~~~---------------------|
D|--3/5---5~~~~~---------------------|
A|--1/3---3~~~~~---------------------|
E|-----------------------x\----------|

E|------11-11h12-11------------------|
B|--xxx-------------12-11------------|
G|------------------------12-10b-----|
D|------------------------------8b~~~|
A|-----------------------------------|
E|-----------------------------------|

E|-----------------------------------|
B|-----------------------------------|
G|--3---5----------------------------|
D|--3---5----------------------------|
A|--1---3----------------------------|
E|-----------------------------------|
sisikat ng muli...Pick Scrape to enter
E|-----------------------------------|
B|-----------------------------------|
G|-----55--333-----3----3----3----3--|
D|-----55--333--xx-3-xx-3-xx-3-xx-3--|
A|-----33--111--xx-1-xx-1-xx-1-xx-1--|
E|--x\-------------------------------|

E|-----------------------------------|
B|-----------------------------------|
G|----------2-3-2-3/5-3-2-3b~~~~~----|
D|-xx---5-3--------------------------|
A|-xx-3------------------------------|
E|-----------------------------------|

VERSE I and II :

E|-----------------------------------|
B|-----------------------------------|
G|-----------------------------------|
D|------2----------------------------|
A|--1-3---3-1b-----------------------|
E|-----------------------------------|

E|-----------------------------------|
B|-----------------------------------|
G|-----------------------------------|
D|------2-2h3b-2b--------------------|
A|--1-3------------------------------|
E|-----------------------------------| Play 2 times

CHORUS :

E|-----------------------------------|
B|-----------------------------------|
G|--55--333-----3----3----3----3-----|
D|--55--333--xx-3-xx-3-xx-3-xx-3-----|
A|--33--111--xx-1-xx-1-xx-1-xx-1-----|
E|-----------------------------------|

E|-----------------------------------|
B|-----------------------------------|
G|--55-3-3-333333-5555---------------|
D|--55-3-3-333333-3333---------------|
A|--33-1-1-111111--------------------|
E|-----------------------------------|

E|-----------------------------------|
B|-----------------------------------|
G|--55--333-----3----3----3----3-----|
D|--55--333--xx-3-xx-3-xx-3-xx-3-----|
A|--33--111--xx-1-xx-1-xx-1-xx-1-----|
E|-----------------------------------|

E|-----------------------------------|
B|-----------------------------------|
G|----------2-3-2-3/5-3-2-3b~~~~~----|
D|-xx---5-3--------------------------|
A|-xx-3------------------------------|
E|-----------------------------------|

VERSE II :

E|-----------------------------------|
B|-----------------------------------|
G|-----------------3-----------------|
D|-xx-5\3--xxx-3-5-1-----------------|
A|-xx-3\1--xxx-1-3-------------------|
E|-----------------------------------|

E|-----------------------------------|
B|-----------------------------------|
G|-----------------------------------|
D|------2-2h3b-2b--------------------|
A|--1-3------------------------------|
E|-----------------------------------|

E|-----------------------------------|
B|-----------------------------------|
G|-----------------------------------|
D|------2----------------------------|
A|--1-3---3-1b-----------------------|
E|-----------------------------------|

E|-----------------------------------|
B|-----------------------------------|
G|-----------------------------------|
D|------2-2h3b-2b--------------------|
A|--1-3------------------------------|
E|-----------------------------------|

( CHORUS )
( INTERLUDE )

common now...
E|-----------------------------------|
B|-----------------------------------|
G|-----------------------------------|
D|------5-----3---3------------------|
A|--3-3---3-1---1---1-0--------------|
E|-----------------------------------| 3 times then

E|-----------------------------------|
B|-----------------------------------|
G|-----------------------------------|
D|-----------------------------------|
A|--3\-------------------------------|
E|-----------------------------------|

SOLO : Mostly Bass guitar plays the solo and d Lead can just make some silent noises. its up
2 u 2 make ur own lead solo coz i consider this 1 a bass solo...but anyway ill post it for u guys.

                                       The Lead plays this thoughout d whole
bass:                                  solo.
E|-----------------------------------| E|--8---10----------|  repeats
B|-----------------------------------| B|--8---8-----------|  through
G|-----------------------------------| G|--8---8-----------|  solo
D|-----------------------------------| D|------------------|
A|-----------------------------------| A|------------------|
E|--0h4-6-4-6------------------------| E|------------------|

bass:
isa na namang awit....
E|-----------------------------------|
B|-----------------------------------|
G|-----------------------------------|
D|------5-----3---3------------------|
A|--3-3---3-1---1---1-0--------------|
E|-----------------------------------| 8 times

E|-----------------------------------|
B|-----------------------------------|
G|-----------------------------------|
D|-----------------------------------|
A|--3-3-1----3-3-1-------------------|
E|-----------------------------------|

( CHORUS )

There! To all Dicta License and other real deal bands fans add me up!
Hope u learn on it.
Tap to rate this tab
# A B C D E F G H I J K L M N O P Q R S T U V W X Y Z